Home » P » Paramore »

Paramore - Ignorance Bass

Artists:  A B C D E F G H I J K L M N O P Q R S T U V W X Y Z # 

Ignorance Bass

(ver. 1) Click to play this song!
Paramore
Intro (Rest for 4 measures)
G|-------------------------|
D|-------------------------|
A|-------------------------|
E|--14/------14/-----------| x2

(4 Measure Rest)

G|-------------------------|
D|-------------------------|
A|--2-2--2-2-2--5-5--5-5-5-|
E|-------------------------| x2

G|----------------------------------------|
D|----------------------------------------|
A|----------------------------------------|
E|--0-0--0-0-0--3-3--3-3-3--5-5--5-5-5----| 

G|-------------------------|
D|-------------------------|
A|--9-9-7-7-5-5-4~---------|
E|-------------------------|

Verse x2
G|----------------|
D|----------------|
A|-2-2-2-2-2-2-2-2|
E|----------------| x4

G|----------------|
D|----------------|
A|----------------|
E|-0-0-0-0-0-0-0-0| x2

G|----------------|
D|----------------|
A|----------------|
E|-3-3-3-3-3-3-3-3|

G|----------------|
D|----------------|
A|----------------|
E|-5-5-5-5-5-5-5-5|

Pre-Chorus x2
G|-------2h4-2--------2h4-2---|
D|-----4-------4----4-------4-|
A|-2-------------2------------|
E|----------------------------| x2

G|----------------|
D|----------------|
A|----------------|
E|-3-3-3-3-3-3-3-3| x3

G|----------------|
D|----------------|
A|----------------|
E|-5-5-5-5-5-5-5-5| x2

G|----------------|
D|----------------|
A|----------------|
E|-0-0-----0-0----|

Chorus
G|-------------------------|
D|-------------------------|
A|--2-2--2-2-2--2-2--2-2-2-|
E|-------------------------| x2

G|-------------------------------------|
D|-------------------------------------|
A|--5-5--5-5-5--5-5--5-5-5-------------|
E|--------------------------0-0--0-0-0-|

G|-------------------------|
D|-------------------------|
A|--9-9-7-7-5-5-4~---------|
E|-------------------------|

G|---------------------------------|
D|---------------------------------|
A|-2-2-2-2-2-2-2-2-2-2-2-2-2-2-2-2-|
E|---------------------------------| x2

G|-------------------------------------------------|
D|-------------------------------------------------|
A|-5-5-5-5-5-5-5-5-5-5-5-5-5-5-5-5-----------------|
E|---------------------------------0-0-0-0-0-0-0-0-|

G|-------------------------|
D|-------------------------|
A|--9-9-7-7-5-5-4~---------|
E|-------------------------|

(4 Measure Rest)

G|----------------|
D|----------------|
A|----------------|
E|-12/------------|

Verse x2
Pre-Chorus x2
Chorus x1

(4 Measure Rest)

G|-------------------------|
D|-------------------------|
A|--2-2--2-2-2--2-2--2-2-2-|
E|-------------------------| x2

Bridge x2
G|--------------------------------|
D|--------------------------------|
A|-2-2-2-2-2-2-2-2-5-5-5-5-5-5-5-5|
E|--------------------------------|

G|---------------------------------|
D|---------------------------------|
A|---------------------------------|
E|-0-0-0-0-0-0-0-0-2-2-3-3-5-5-5-5-|

G|----------------|
D|----------------|
A|----------------|
E|-0-0-----0-0----|

Chorus x1
            
Submit corrections

↑ Back to top | Tablatures and chords for acoustic guitar and electric guitar, ukulele, drums are parodies/interpretations of the original songs. You may use it for private study, scholarship, research or language learning purposes only