Home » P » Paramore »

Paramore - One Of Those Crazy Girls Bass

Artists:  A B C D E F G H I J K L M N O P Q R S T U V W X Y Z # 

One Of Those Crazy Girls Bass

(ver. 1) Click to play this song!
Paramore
Verse

G|-----------------3/8----------4-4-4-6-4------| 
D|--4-4-4---1-1-1--------6-6-6-----------------|
A|---------------------------------------------|
E|---------------------------------------------|
                                                  PLAY  TWICE
G|-----------------1---------0------0---4-3----|
D|--4-4-4--------3---------3-------------------|
A|---------4-4-4------1-1-1-----2-2---2--------|
E|---------------------------------------------|

Pre-Chorus

G|---------------------------------------------|
D|-------------------------------------4-------|
A|----------1-1-1--2-2-2—(hold)-----2----4-2---|
E|---2-2-2-------------------------------------|
                                                   PLAY TWICE
G|---------------------------------------------|
D|---------------------------------------------|
A|----------1-1-1--2-2-2—(hold)----------------|
E|---2-2-2-------------------------------------|

Chorus

G|------------------------------|
D|------------------------------|
A|--------6(x8)-----------------|
E|--2(x8)-------4(x8)---7(x8)---|
                                                  PLAY TWICE
G|----------------------------------------|
D|----------------------------------------|
A|--------4(x8)---------------------------|
E|--2(x8)-------6(x8)---7-7-7-7-7-9-7-2---|

Pre-Chorus

G|---------------------------------------------|
D|-------------------------------------4-------|
A|----------1-1-1--2-2-2—(hold)-----2----4-2---|
E|---2-2-2-------------------------------------|
                                                  PLAY TWICE
G|---------------------------------------------|
D|---------------------------------------------|
A|----------1-1-1--2-2-2—(hold)----------------|
E|---2-2-2-------------------------------------|



Chorus and Outro

G|------------------------------|
D|------------------------------|
A|--------6(x8)-----------------|
E|--2(x8)-------4(x8)---7(x8)---|
                                                  PLAY EIGHT TIMES (LISTEN FOR THE STOPS, ITS REALLY EASY TO  
G|----------------------------------------|       GET THE TIMINGS RIGHT)
D|----------------------------------------|
A|--------4(x8)---------------------------|
E|--2(x8)-------6(x8)---7-7-7-7-7-9-7-2---|

End on
G|-------|
D|-------|
A|-------|
E|---2---|            
Submit corrections

↑ Back to top | Tablatures and chords for acoustic guitar and electric guitar, ukulele, drums are parodies/interpretations of the original songs. You may use it for private study, scholarship, research or language learning purposes only