» » »

Nofx - Oxy Moronic Tabs

Artists:  A B C D E F G H I J K L M N O P Q R S T U V W X Y Z # 

Oxy Moronic Tabs

(ver. 1) Click to play this song!
Nofx
 Rating:
4.3/5 (23 votes)

 Oxy Moronic lessons Tabs too difficult? Try these video lessons and learn fast
 
                [Intro]
e|-------------------|-------------------|-------------------|-------------------|
B|-------------------|-------------------|-------------------|-------------------|
G|-------------------|-------------------|-------------------|-------------------|
D|--7-7-7-7-7-7-7-7--|--7-7-7-7-7-7-7-7--|--7-7-7-7-7-7-7-7--|--5/7-7-7-7-7-7-7--|
A|--7-7-7-7-7-7-7-7--|--7-7-7-7-7-7-7-7--|--7-7-7-7-7-7-7-7--|--5/7-7-7-7-7-7-7--|
E|--5-5-5-5-5-5-5-5--|--5-5-5-5-5-5-5-5--|--5-5-5-5-5-5-5-5--|--3/5-5-5-5-5-5-5--|


[Verse 1]
e|-------------------|-------------------|-------------------|-------------------||
B|-------------------|-------------------|-------------------|-------------------||
G|-------------------|-------------------|-------------------|-------------------||
D|--7-7-7-7-7-7-7-7--|--7-7-7-7-7-7-7-7--|--5-5-5-5-5-5-5-5--|--5-5-5-5-5-5-5-5--||
A|--7-7-7-7-7-7-7-7--|--7-7-7-7-7-7-7-7--|--5-5-5-5-5-5-5-5--|--5-5-5-5-5-5-5-5--||
E|--5-5-5-5-5-5-5-5--|--5-5-5-5-5-5-5-5--|--3-3-3-3-3-3-3-3--|--3-3-3-3-3-3-3-3--||
                                                                                  | (x2)
e|-------------------|-------------------|-------------------|-------------------||
B|-------------------|-------------------|-------------------|-------------------||
G|--7-7-7-7-7-7-7-7--|--7-7-7-7-7-7-7-7--|-------------------|-------------------||
D|--7-7-7-7-7-7-7-7--|--7-7-7-7-7-7-7-7--|--7-7-7-7-7-7-7-7--|--5/7-7-7-7-7-7-7--||
A|--5-5-5-5-5-5-5-5--|--5-5-5-5-5-5-5-5--|--7-7-7-7-7-7-7-7--|--5/7-7-7-7-7-7-7--||
E|-------------------|-------------------|--5-5-5-5-5-5-5-5--|--3/5-5-5-5-5-5-5--||

e|-------------------|-------------------|--------------------------|-------------------|
B|-------------------|-------------------|--------------------------|-------------------|
G|-------------------|--9-9-9-9-9-9-9-9--|-11-11-11-11-11-11-11-11--|--7-7-7-7-7-7-7-7--|
D|--7-7-7-7-7-7-7-7--|--x-x-x-x-x-x-x-x--|--x--x--x--x--x--x--x--x--|--x-x-x-x-x-x-x-x--|
A|--x-x-x-x-x-x-x-x--|--7-7-7-7-7-7-7-7--|--9--9--9--9--9--9--9--9--|--5-5-5-5-5-5-5-5--|
E|--5-5-5-5-5-5-5-5--|-------------------|--------------------------|-------------------|

e|-------------------|-------------------|----------------------------|--------------------------------------|
B|-------------------|-------------------|----------------------------|--------------------------------------|
G|-------------------|--9-9-9-9-9-9-9-9--|--7-7-7--7-7-7--7-7--7-7-7--|-14-14-14--14-14-14--14-14--14-14-14--|
D|--7-7-7-7-7-7-7-7--|--x-x-x-x-x-x-x-x--|--x-x-x--x-x-x--x-x--x-x-x--|--x--x--x---x--x--x---x--x---x--x--x--|
A|--x-x-x-x-x-x-x-x--|--7-7-7-7-7-7-7-7--|--5-5-5--5-5-5--5-5--5-5-5--|-12-12-12--12-12-12--12-12--12-12-12--|
E|--5-5-5-5-5-5-5-5--|-------------------|----------------------------|--------------------------------------|


[Verse 2]
e|-------------------|-------------------|-------------------|-------------------||
B|-------------------|-------------------|-------------------|-------------------||
G|-------------------|-------------------|-------------------|-------------------||
D|--7-7-7-7-7-7-7-7--|--7-7-7-7-7-7-7-7--|--5-5-5-5-5-5-5-5--|--5-5-5-5-5-5-5-5--||
A|--7-7-7-7-7-7-7-7--|--7-7-7-7-7-7-7-7--|--5-5-5-5-5-5-5-5--|--5-5-5-5-5-5-5-5--||
E|--5-5-5-5-5-5-5-5--|--5-5-5-5-5-5-5-5--|--3-3-3-3-3-3-3-3--|--3-3-3-3-3-3-3-3--||
                                                                                  | (x2)
e|-------------------|-------------------|-------------------|-------------------||
B|-------------------|-------------------|-------------------|-------------------||
G|--7-7-7-7-7-7-7-7--|--7-7-7-7-7-7-7-7--|-------------------|-------------------||
D|--7-7-7-7-7-7-7-7--|--7-7-7-7-7-7-7-7--|--7-7-7-7-7-7-7-7--|--5/7-7-7-7-7-7-7--||
A|--5-5-5-5-5-5-5-5--|--5-5-5-5-5-5-5-5--|--7-7-7-7-7-7-7-7--|--5/7-7-7-7-7-7-7--||
E|-------------------|-------------------|--5-5-5-5-5-5-5-5--|--3/5-5-5-5-5-5-5--||

e|-------------------|-------------------|-------------------|-------------------|
B|-------------------|-------------------|-------------------|-------------------|
G|-------------------|--9----------------|--11---------------|--7----------------|
D|--7----------------|--9----------------|--11---------------|--7----------------|
A|--7----------------|--7----------------|---9---------------|--5----------------|
E|--5----------------|-------------------|-------------------|-------------------|

e|-------------------|-------------------|-------------------|-------------------|
B|-------------------|-------------------|-------------------|-------------------|
G|-------------------|--9----------------|--7-7-7-7-7-7-7-7--|--7-7-7-7-7-7-7-7--|
D|--7----------------|--9----------------|--7-7-7-7-7-7-7-7--|--7-7-7-7-7-7-7-7--|
A|--7----------------|--7----------------|--5-5-5-5-5-5-5-5--|--5-5-5-5-5-5-5-5--|
E|--5----------------|-------------------|-------------------|-------------------|


[Chorus 1]
e|--------------------------------------|--------------------------------------|
B|--------------------------------------|--------------------------------------|
G|-14-14-14--14-14-14--14-14--14-14-14--|-14-14-14--14-14-14--14-14--14-14-14--|
D|--x--x--x---x--x--x---x--x---x--x--x--|--x--x--x---x--x--x---x--x---x--x--x--|
A|-12-12-12--12-12-12--12-12--12-12-12--|-12-12-12--12-12-12--12-12--12-12-12--|
E|--------------------------------------|--------------------------------------|


[Verse 3]
e|-------------------|-------------------|-------------------|-------------------|
B|-------------------|-------------------|-------------------|-------------------|
G|-------------------|-------------------|-------------------|-------------------|
D|--7-7-7-7-7-7-7-7--|--7-7-7-7-7-7-7-7--|--5-5-5-5-5-5-5-5--|--5-5-5-5-5-5-5-5--|
A|--7-7-7-7-7-7-7-7--|--7-7-7-7-7-7-7-7--|--5-5-5-5-5-5-5-5--|--5-5-5-5-5-5-5-5--|
E|--5-5-5-5-5-5-5-5--|--5-5-5-5-5-5-5-5--|--3-3-3-3-3-3-3-3--|--3-3-3-3-3-3-3-3--|
          PM                 PM                   PM                  PM
e|-------------------|-------------------|--12--------------------12-------------|
B|-------------------|-------------------|--15b17--15b17-15-13----15b17-13-------|
G|--7-7-7-7-7-7-7-7--|--7-7-7-7-7-7-7-7--|---------------------14----------12-14-|
D|--7-7-7-7-7-7-7-7--|--7-7-7-7-7-7-7-7--|---------------------------------------|
A|--5-5-5-5-5-5-5-5--|--5-5-5-5-5-5-5-5--|---------------------------------------|
E|-------------------|-------------------|---------------------------------------|
          PM                 PM        
e|-------------------|-------------------|--------------------------|-------------------|
B|-------------------|-------------------|--------------------------|-------------------|
G|-------------------|--9-9-9-9-9-9-9-9--|-11-11-11-11-11-11-11-11--|--7-7-7-7-7-7-7-7--|
D|--7-7-7-7-7-7-7-7--|--9-9-9-9-9-9-9-9--|-11-11-11-11-11-11-11-11--|--7-7-7-7-7-7-7-7--|
A|--7-7-7-7-7-7-7-7--|--7-7-7-7-7-7-7-7--|--9--9--9--9--9--9--9--9--|--5-5-5-5-5-5-5-5--|
E|--5-5-5-5-5-5-5-5--|-------------------|--------------------------|-------------------|

e|-------------------|-------------------|-------------------|-------------------|
B|-------------------|-------------------|-------------------|-------------------|
G|-------------------|--9-9-9-9-9-9-9-9--|--7-7-7-7-7-7-7-7--|--7-7-7-7-7-7-7-7--|
D|--7-7-7-7-7-7-7-7--|--9-9-9-9-9-9-9-9--|--7-7-7-7-7-7-7-7--|--7-7-7-7-7-7-7-7--|
A|--7-7-7-7-7-7-7-7--|--7-7-7-7-7-7-7-7--|--5-5-5-5-5-5-5-5--|--5-5-5-5-5-5-5-5--|
E|--5-5-5-5-5-5-5-5--|-------------------|-------------------|-------------------|


[Chorus 2]
e|--------------------------------------|--------------------------------------|
B|--------------------------------------|--------------------------------------|
G|-14-14-14--14-14-14--14-14--14-14-14--|-12-12-12--12-12-12--12-12--12-12-12--|
D|--x--x--x---x--x--x---x--x---x--x--x--|--x--x--x---x--x--x---x--x---x--x--x--|
A|-12-12-12--12-12-12--12-12--12-12-12--|-10-10-10--10-10-10--10-10--10-10-10--|
E|--------------------------------------|--------------------------------------|

e|-----------------------------------|-----------------------------------|
B|-----------------------------------|-----------------------------------|
G|--7-7-7-7--7-7-7-7---7-7--7-7-7-7--|-----------------------------------|
D|--7-7-7-7--7-7-7-7---7-7--7-7-7-7--|--5-5-5-5--5-5-5-5---5-------------|
A|--5-5-5-5--5-5-5-5---5-5--5-5-5-5--|--5-5-5-5--5-5-5-5---5-------------|
E|-----------------------------------|--7-7-7-7--7-7-7-7---7-------------|


[Bridge]
e|-------------------|-------------------|-----------------------------------|
B|-------------------|-------------------|-----------------------------------|
G|-------------------|-------------------|--7-7-----7-7-----7-7-----7-7------|
D|--4-4-4-4-4-4-4-4--|--4-4-4-4-4-4-4-4--|------7-7-----7-7-----7-7-----7-7--|
A|--4-4-4-4-4-4-4-4--|--4-4-4-4-4-4-4-4--|-----------------------------------|
E|--2-2-2-2-2-2-2-2--|--2-2-2-2-2-2-2-2--|-----------------------------------|

e|-----------------------------------|-----------------------------------|
B|-----------------------------------|-----------------------------------|
G|--6-6-----6-6-----6-6-----6-6------|--4-4-----4-4-----4-4-----4-4------|
D|------7-7-----7-7-----7-7-----7-7--|------6-6-----6-6-----6-6-----6-6--|
A|-----------------------------------|-----------------------------------|
E|-----------------------------------|-----------------------------------|

e|-----------------------------------|-----------------------------------|
B|-----------------------------------|-----------------------------------|
G|--6-6-----6-6-----6-6-----6-6------|--7-7-----7-7-----7-7-----7-7------|
D|------7-7-----7-7-----7-7-----7-7--|------9-9-----9-9-----9-9-----9-9--|
A|-----------------------------------|-----------------------------------|
E|-----------------------------------|-----------------------------------|

e|-----------------------------------|-------------------|-------------------|
B|-----------------------------------|-------------------|-------------------|
G|--6-6-----6-6-----6-6-----6-6------|--7-7-7-7-7-7-7-7--|--7-7-7-7-7-7-7-7--|
D|------7-7-----7-7-----7-7-----7-7--|--7-7-7-7-7-7-7-7--|--7-7-7-7-7-7-7-7--|
A|-----------------------------------|--5-5-5-5-5-5-5-5--|--5-5-5-5-5-5-5-5--|
E|-----------------------------------|-------------------|-------------------|

e|------------------------------|
B|------------------------------|
G|--4-4-----4-4-----------------|
D|------6-6-----6-6--/////////--|
A|-------------------/////////--|
E|-------------------/////////--|


[Verse 4] - Play Nothing


[Verse 5]
e|-------------------|-------------------|-------------------|-------------------|
B|-------------------|-------------------|-------------------|-------------------|
G|-------------------|-------------------|-------------------|-------------------|
D|--7-7-7-7-7-7-7-7--|--7-7-7-7-7-7-7-7--|--5-5-5-5-5-5-5-5--|--5-5-5-5-5-5-5-5--|
A|--7-7-7-7-7-7-7-7--|--7-7-7-7-7-7-7-7--|--5-5-5-5-5-5-5-5--|--5-5-5-5-5-5-5-5--|
E|--5-5-5-5-5-5-5-5--|--5-5-5-5-5-5-5-5--|--3-3-3-3-3-3-3-3--|--3-3-3-3-3-3-3-3--|
          PM                 PM                   PM                  PM
e|-------------------|-------------------|-------------------|-------------------|
B|-------------------|-------------------|-------------------|-------------------|
G|--7-7-7-7-7-7-7-7--|--7-7-7-7-7-7-7-7--|-------------------|-------------------|
D|--7-7-7-7-7-7-7-7--|--7-7-7-7-7-7-7-7--|--7-7-7-7-7-7-7-7--|--7-7-7-7-7-7-7-7--|
A|--5-5-5-5-5-5-5-5--|--5-5-5-5-5-5-5-5--|--7-7-7-7-7-7-7-7--|--7-7-7-7-7-7-7-7--|
E|-------------------|-------------------|--5-5-5-5-5-5-5-5--|--5-5-5-5-5-5-5-5--|
          PM                 PM                   PM
e|-------------------|-------------------|-------------------|-------------------|
B|-------------------|-------------------|-------------------|-------------------|
G|-------------------|-------------------|-------------------|-------------------|
D|--7-7-7-7-7-7-7-7--|--7-7-7-7-7-7-7-7--|--5-5-5-5-5-5-5-5--|--5-5-5-5-5-5-5-5--|
A|--7-7-7-7-7-7-7-7--|--7-7-7-7-7-7-7-7--|--5-5-5-5-5-5-5-5--|--5-5-5-5-5-5-5-5--|
E|--5-5-5-5-5-5-5-5--|--5-5-5-5-5-5-5-5--|--3-3-3-3-3-3-3-3--|--3-3-3-3-3-3-3-3--|
                                                                                  
e|-------------------|-------------------|--12--------------------12-------------|
B|-------------------|-------------------|--15b17--15b17-15-13----15b17-13-------|
G|--7-7-7-7-7-7-7-7--|--7-7-7-7-7-7-7-7--|---------------------14----------12-14-|
D|--7-7-7-7-7-7-7-7--|--7-7-7-7-7-7-7-7--|---------------------------------------|
A|--5-5-5-5-5-5-5-5--|--5-5-5-5-5-5-5-5--|---------------------------------------|
E|-------------------|-------------------|---------------------------------------|

e|-------------------|-------------------|-------------------|-------------------|
B|-------------------|-------------------|-------------------|-------------------|
G|-------------------|-------------------|-------------------|-------------------|
D|--7-7-7-7-7-7-7-7--|--7-7-7-7-7-7-7-7--|--5-5-5-5-5-5-5-5--|--5-5-5-5-5-5-5-5--|
A|--7-7-7-7-7-7-7-7--|--7-7-7-7-7-7-7-7--|--5-5-5-5-5-5-5-5--|--5-5-5-5-5-5-5-5--|
E|--5-5-5-5-5-5-5-5--|--5-5-5-5-5-5-5-5--|--3-3-3-3-3-3-3-3--|--3-3-3-3-3-3-3-3--|
                                                                                  
e|-------------------|-------------------|-------------------|---------------------------|
B|-------------------|-------------------|-------------------|---------------------------|
G|--7-7-7-7-7-7-7-7--|--7-7-7-7-7-7-7-7--|-------------------|--14-14-14-14-14-14-14-14--|
D|--7-7-7-7-7-7-7-7--|--7-7-7-7-7-7-7-7--|--7-7-7-7-7-7-7-7--|---x--x--x--x--x--x--x--x--|
A|--5-5-5-5-5-5-5-5--|--5-5-5-5-5-5-5-5--|--7-7-7-7-7-7-7-7--|--12-12-12-12-12-12-12-12--|
E|-------------------|-------------------|--5-5-5-5-5-5-5-5--|---------------------------|


[Outro]
e|----------------------------------|----------------------------------|
B|----------------------------------|----------------------------------|
G|--14--14--14--14--14--14--14--14--|--12--12--12--12--12--12--12--12--|
D|---x---x---x---x---x---x---x---x--|---x---x---x---x---x---x---x---x--|
A|--12--12--12--12--12--12--12--12--|--10--10--10--10--10--10--10--10--|
E|----------------------------------|----------------------------------|

e|----------------------------------|----------------------------------|
B|----------------------------------|----------------------------------|
G|--11--11--11--11--11--11--11--11--|----------------------------------|
D|---x---x---x---x---x---x---x---x--|--7\-------------[Noise]----------|
A|---9---9---9---9---9---9---9---9--|--7\------------------------------|
E|----------------------------------|--5\----/9------------------------|

            
Submit corrections


        Oxy Moronic lessons Hard to play? Try these video lessons and learn fast Oxy Moronic lessons
        
↑ Back to top | Tablatures and chords for acoustic guitar and electric guitar, ukulele, drums are parodies/interpretations of the original songs. You may use it for private study, scholarship, research or language learning purposes only