Home » N » Nofx »

Nofx - Radio Tabs

Artists:  A B C D E F G H I J K L M N O P Q R S T U V W X Y Z # 

Radio Tabs

(ver. 1) Click to play this song!
Nofx
 Rating:
4/5 (4 votes)
                NoFX - Radio (originally by Rancid, but any fan will know about the split)
masterbassor: Fat Mike
Ablum: NoFX/Rancid BYO Split Series 3


Intro
G--------------------------------------------
D--------------------------------------------
A--------------------------------------------
E-0(ring)------------------------------------
  Yeah, long time.........

Verse
G--------------------------------------------
D--------------------------------------------  (repeat)
A-------------9-10-9----10-10-10-10-10-9-----
E-10-10-10-10----------------------------10--

Pre-chorus
G--------------------------------------------
D--------------------------------------------
A-0(ring)------------------------------------
E--------------------------------------------
  Here it is, here i am.......
   
Chorus
G--------------------------------------------
D--------------------------------------------
A-------------9-10-9----10-10-10-10-10-9-----
E-10-10-10-10----------------------------10--
   radio, radio, radio, radio, radio, radio
G--------------------------------------------
D--------------------------------------------
A-------------9-10-7-10-10-10-10-10-9--------
E-10-10-10-10-------------------------10-----
  When i've got......
Bridge
G------------------------------------------------
D------------------------------------------------
A----------10-----------10-----------5--------5--
E-12-12-12----12--12-12----12--7-7-7---7--7-7---7

Lyrics
Yeah, long time many people have suffered.
Never fell in love 'till i fell in love with you,
Never knew what a good time was, 'till i've had a good time with you,
If you want to get the feeling and you want to get it right,
Then the musics got to be loud, for when the music hits me,
I feel no pain at all,

Here it is, here i am, turn it up fu*king loud,
Radio, radio, radio, radio, radio, radio,
When i've got the music, i've got a place to go,
Radio, radio, radio, radio, radio, radio,
When i've got the music, i've got a place i can go,

Warm summer night, i was drinkin' with me dad,
He tried to give me love, that i never had,
But he gave more love to his bottle of wine,
So i had to go out and find, love of another kind

Here it is, here i am, turn it up fu*king loud,
Radio, radio, radio, radio, radio, radio
When i've got the music, i've got the place to go,
Radio, radio, radio, radio, radio, radio,
When i've got the music i've got the place i can go,
I've got the place i can go,

Radio clash, magnificent seven, 
I was a chior boy you showed me no heaven,
Two tools shurley lost, 
radio, radio, radio,
No remorse ignoring the cost,
radio, radio, radio

Everybody,
radio, radio, radio, radio, radio, radio,
when i've got the the music i've got a place to go,
radio, radio, radio, radio, radio, radio,
when i've got the music i've got the place i can go,(end on D and let ring)
            
Submit corrections

↑ Back to top | Tablatures and chords for acoustic guitar and electric guitar, ukulele, drums are parodies/interpretations of the original songs. You may use it for private study, scholarship, research or language learning purposes only