Home » N » Nofx »

Nofx - Franco Un - American Tabs

Artists:  A B C D E F G H I J K L M N O P Q R S T U V W X Y Z # 

Franco Un - American Tabs

(ver. 1) Click to play this song!
Nofx
 Rating:
4/5 (4 votes)
                / = slide up

INTRO (possibly played on whamy pedal?)

|-----------------------------------------|
|-----------------------------------------|
|-12/15-8/11-5/7-2/4-5/7-8/11-12/15-15/18-|
|-----------------------------------------|
|-----------------------------------------|
|-----------------------------------------|



VERSE 1 (on second guitar the intro is still been played
         as this verse is)

|------------------------------------------|
|------------------------------------------|
|-------5555------9999----------5555-7777--| 
|--5555-5555-5555-9999-77777777-5555-7777--|  x2
|--5555-3333-5555-7777-77777777-3333-5555--|
|--3333------3333------55555555------------|




solo (this is played on a keyboard but there is nothing
      wrong with it on guiter.here it is transcribed)

|--------------------------------------------------|
|--------------------------------------------------|
|-12--12---12-12-14-12---12--12--12-12-16-14-12-12-|  x2
|--------------------------------------------------|
|--------------------------------------------------|
|--------------------------------------------------|
                      +
     when above is played this is in background

|------------------------------------------|
|------------------------------------------|
|-------5555------9999-22222222-5555-5555--| 
|--5555-5555-5555-9999-22222222-5555-5555--|  x2
|--5555-3333-5555-7777-00000000-3333-2222--|
|--3333------3333--------------------------|



VERSE 2

|------------------------------------------|
|------------------------------------------|
|-------5555------9999----------5555-7777--| 
|--5555-5555-5555-9999-77777777-5555-7777--|  x2
|--5555-3333-5555-7777-77777777-3333-5555--|
|--3333------3333------55555555------------|
 [pm pm pm pm pm pm pm pm pm pm pm pm pm pm]



BRIDGE ?

|--------------------------|
|--------------------------|
|----------------5555-7777-| 
|-5555-5555-2222-5555-7777-|   
|-5555-5555-2222-3333-5555-|
|-3333-2222-0000-----------|



CHORUS

|---------------------|----|-------------|
|---------------------|----|-------------|
|------7777------5555-|----|------7777---|
|-5555-7777-2222-5555-|-x3-|-5555-7777-2-|
|-5555-5555-2222-3333-|----|-5555-5555-2-|
|-3333------0000------|----|-3333------0-|



SOLO (remember the other bit on guitar2 too)

|--------------------------------------------------|
|--------------------------------------------------|
|-12--12---12-12-14-12---12--12--12-12-16-14-12-12-|  x2
|--------------------------------------------------|
|--------------------------------------------------|
|--------------------------------------------------| 



VERSE 3

|------------------------------------------|
|------------------------------------------|
|-------5555------9999----------5555-7777--| 
|--5555-5555-5555-9999-77777777-5555-7777--|  x2
|--5555-3333-5555-7777-77777777-3333-5555--|
|--3333------3333------55555555------------|

|------------------------------------------|
|------------------------------------------|
|-------5555------9999----------5555-7777--| 
|--5555-5555-5555-9999-77777777-5555-7777--|  x2
|--5555-3333-5555-7777-77777777-3333-5555--|
|--3333------3333------55555555------------|
[pm pm pm pm pm pm pm pm pm pm pm pm pm pm]

|-----------------------------------------|--|-------------|
|-----------------------------------------|--|-------------|
|-------5555------9999----------5555-7777-|--|-------------| 
|--5555-5555-5555-9999-77777777-5555-7777-|x2|-55555555555-|  
|--5555-3333-5555-7777-77777777-3333-5555-|--|-55555555555-|
|--3333------3333------55555555-----------|--|-33333333333-|



INSTRUMENTAL/BRIDGE  (this is also on keyboard
                      but just do this)
                     (let all of these ring)

|----------------------------------|
|----------------------------------|
|-----7-------5--------7-------5---|
|-5---7---2---5----5---7---2---5---|
|-5---5---2---3----5---5---2---3---|
|-3-------0--------3-------0-------|


CHORUS (the solo is played in background)

|---------------------|----|-------------|
|---------------------|----|-------------|
|------7777------5555-|----|------7777---|
|-5555-7777-2222-5555-|-x3-|-5555-7777-2-|
|-5555-5555-2222-3333-|----|-5555-5555-2-|
|-3333------0000------|----|-3333------0-|





at first glace it may seem complicated but its moreless all 
power chords and simple fingering.the fact that there is 
secong guitar adds a lot to the tab.anyway i have transcribed
the key board bits.this song is mad,funny and cool the play

enjoy!
            
Submit corrections

↑ Back to top | Tablatures and chords for acoustic guitar and electric guitar, ukulele, drums are parodies/interpretations of the original songs. You may use it for private study, scholarship, research or language learning purposes only