Home » N » Nofx »

Nofx - Liza And Louise Tabs

Artists:  A B C D E F G H I J K L M N O P Q R S T U V W X Y Z # 

Liza And Louise Tabs

(ver. 1) Click to play this song!
Nofx
 Rating:
3.5/5 (6 votes)
                Legend: 
x mute 
b bend 
r release I know the 1st solo is right or very close, 
h hammer on im not sure about the 2nd. 
p pull off 
~ vibrato 
/ slide up 
\ slide down 
^^ tremolo 

Intro: (Solo) 
e|-------------12-----12-b13-------------|---------------------------------------| 
b|-12-------------14--12-b13----14-------|-----------------------------------12--| 
g|-15b16---------------------------------|-14-11-14-----------------11--14-------| 
d|---------------------------------------|-------------------12--14--------------| 
a|---------------------------------------|-------------12-14---------------------| 
e|---------------------------------------|---------------------------------------| 

e|---------------------------------------|---------------------------------------| 
b|-12-h14-14--14--14p12--12-12--12h14--14|-14--14p12-----------------------------| 
d|---------------------------------------|------------14-16---14-16--------------| 
g|---------------------------------------|--------------------------14--16-14----| 
a|---------------------------------------|------------------------------------16-| 
e|---------------------------------------|---------------------------------------| 

e|---------------------------------------|---------------------------------------| 
b|---------------------------------------|---------------------------------------| 
g|---------------------------------------|---------------------------------------| 
d|---------------------------------------|---------------------------------------| 
a|--14--16-14-16--12-14-12---------------|---------------------------------------| 
e|--------------------------14-----------|---------------------------------------| 

Verse 
<-----------P.M.-----------> <----------P.M.--------> 
g|-------------------------------6--------------------------------6----- 
d|--7-7-7-7-7-7-7-7-7-7-7-7-7-7--6--4---4-4-4-4-4-4-4-4-4-4-4-4---6----- 
a|--7-7-7-7-7-7-7-7-7-7-7-7-7-7--4--4---4-4-4-4-4-4-4-4-4-4-4-4---4----- 
e|--5-5-5-5-5-5-5-5-5-5-5-5-5-5-----2---2-2-2-2-2-2-2-2-2-2-2-2--------- 

<--------P.M.---------> <---------P.M.----------> 
D5ii B5 E5ii 
g|-7--7-7-7-7-7-7-7-7-7-7-7-7---9---9-9-9-9-9-9-9-9-9-9-9-9-9----------- 
d|-7--7-7-7-7-7-7-7-7-7-7-7-7---9---9-9-9-9-9-9-9-9-9-9-9-9-9--7-------- 
a|-5--5-5-5-5-5-5-5-5-5-5-5-5---9---7-7-7-7-7-7-7-7-7-7-7-7-7--7-------- 
e|-------------------------------------------------------------7-------- 

Bridge 

g---------------------------------------------------------4-4-4-4-4-4-4-4- 
d--7-7-7-7-7-7-7-7-7-7-7-7--7-7--6--4---4-4-4-4-4-4-4-4---4-4-4-4-4-4-4-4- 
a--7-7-7-7-7-7-7-7-7-7-7-7--7-7--6--4---4-4-4-4-4-4-4-4---2-2-2-2-2-2-2-2- 
e--5-5-5-5-5-5-5-5-5-5-5-5--5-5--4--2---2-2-2-2-2-2-2-2------------------- 


g--9-9-9-9-9-9-9-9---6-6-6-6-6-6-6-6--------------------------------4-4-4-4-4-4-4-4- 
d--9-9-9-9-9-9-9-9---6-6-6-6-6-6-6-6----7-7--6--4--4-4-4-4-4-4-4-4--4-4-4-4-4-4-4-4- 
a--7-7-7-7-7-7-7-7---4-4-4-4-4-4-4-4----7-7--6--4--4-4-4-4-4-4-4-4--2-2-2-2-2-2-2-2- 
e---------------------------------------5-5--4--2--2-2-2-2-2-2-2-2------------------ 


g--9-9-9-9-9-9-9-9--6-6-6-6-6-6-6-6------ 
d--9-9-9-9-9-9-9-9--6-6-6-6-6-6-6-6------ To chorus 
a--7-7-7-7-7-7-7-7--4-4-4-4-4-4-4-4------ 
e---------------------------------------- 

Chorus 
<---P.M.---> <---P.M.---> 
g-------------------6--6-6-6-6-6-6---7- 
d----7--7-7-7-7-7---6--6-6-6-6-6-6---7- 
a----7--7-7-7-7-7---4--4-4-4-4-4-4---5- 
e----5--5-5-5-5-5---------------------- 


<---P.M.---> <---P.M.---> 
g--7-7-7-7-7-7---------------------------------------------7-7-7-7-7-7-7-7-7-7-7-7- 
d--7-7-7-7-7-7---7--7-7-7-7-7-7---9-9-9-9-9-9-9-9-9-9-9-9--7-7-7-7-7-7-7-7-7-7-7-7- 
a--5-5-5-5-5-5---7--7-7-7-7-7-7---9-9-9-9-9-9-9-9-9-9-9-9--5-5-5-5-5-5-5-5-5-5-5-5- 
e----------------5--5-5-5-5-5-5---7-7-7-7-7-7-7-7-7-7-7-7-------------------------- 


g--9-9-9-9-9-9-9-9-9-9-9-9- 
d--9-9-9-9-9-9-9-9-9-9-9-9- then go to solo with 2nd guitar playing verse 
a--7-7-7-7-7-7-7-7-7-7-7-7- 
e-------------------------- 



Solo: 
e|--12b13--12b-13------------------------|-------12------------------------------| 
b|----------------14--14p13--14-p13--12--|-12-b13---12--12b13--12b13r12----------| 
g|---------------------------------------|------------------------------14-14p12-| 
d|---------------------------------------|---------------------------------------| 
a|---------------------------------------|---------------------------------------| 
e|---------------------------------------|---------------------------------------| 

e|---------------------------------------|--------12-14-14--12----12-------------| 
b|---------------------------------------|--------------------15------15---------| 
g|-12-h14-14-12-h14--14-12h14-14--12-h14-|-14-b15--------------------------------| 
d|---------------------------------------|---------------------------------------| 
a|---------------------------------------|---------------------------------------| 
e|---------------------------------------|---------------------------------------| 

e|---------------------------------------| 
b|---------------------------------------| 
g|-12-b13-12b13--12b14-------------------| 
d|----------------------14--12--14-------| Then to Verse, then to bridge, then to chorus, 
a|---------------------------------------| Then theres the verse w/ one guitar playing an A--12- 
e|---------------------------------------| Then it does the e------------- 
b--12b14-12--- 
g----------14
            
Submit corrections

↑ Back to top | Tablatures and chords for acoustic guitar and electric guitar, ukulele, drums are parodies/interpretations of the original songs. You may use it for private study, scholarship, research or language learning purposes only