Home » N » Nofx »

Nofx - Liza And Louise Tabs

Artists:  A B C D E F G H I J K L M N O P Q R S T U V W X Y Z # 

Liza And Louise Tabs

(ver. 2) Click to play this song!
Nofx
 Rating:
4/5 (4 votes)
                (Intro)
Since this wasn't posted yet here you are. It's 100% correct.
Mail me an tell me how great I am :-)

e-------17-------------------------------------------------
b-(17)----17-----------------------------------------------
g--16b18~~~~18r16-16-14--14------------14-16-16s18-18-18s16
d----------------------16--------14h16---------------------
a---------------------------14h16--------------------------
e----------------------------------------------------------

e------------------------------------------------------------
b------------------------------------------------------------
g-16-16s18-18-18s16-16s18-18s16-16p14-14h16-14h16------------
d-------------------------------------------------14h16-16p14
a------------------------------------------------------------
e------------------------------------------------------------

e-------------------------
b-------------------------
g-------------------------
d-------------------------
a-14h16-14h16-12h14p12--12
e---------------------14--
            
Submit corrections

↑ Back to top | Tablatures and chords for acoustic guitar and electric guitar, ukulele, drums are parodies/interpretations of the original songs. You may use it for private study, scholarship, research or language learning purposes only