Home » N » Nightwish »

Nightwish - Nemo Bass

Artists:  A B C D E F G H I J K L M N O P Q R S T U V W X Y Z # 

Nemo Bass

(ver. 2) Click to play this song!
Nightwish
-----------------------------------------------------------------------------
                             NEMO - Nightwish
-----------------------------------------------------------------------------


PS. If there is something incorrect with this tab, please, inform me by e-mail.


Tuning: C G C F

4/4
INTRO

   E E E E E E E E   E E E E E E E E   E E E E E E E E   E E E E E E E E
F|-----------------|-----------------|-----------------|-----------------|
C|-----------------|-----------------|-----------------|-----------------|
G|-----------------|-----------------|-----------------|-----------------|
C|-2-2-2-2-2-2-2-2-|-2-2-2-2-2-2-2-2-|-5-5-5-5-5-5-5-5-|-0-0-0-0-0-0-0-0-|


VERSE

   E E E E E E E E   E E E E E E E E   E E E E E E E E   E E E E E E E E
F|-----------------|-----------------|-----------------|-----------------|
C|-----------------|-----------------|-----------------|-----------------|
G|-----------------|-----------------|-----------------|-----------------|
C|-2-2-2-2-2-2-2-2-|-2-2-2-2-2-2-2-2-|-2-2-2-2-2-2-2-2-|-2-2-2-2-2-2-2-2-|

   E E E E E E E E   E E E E E E E E   E E E E E E E E   E E E E E E E E
F|-----------------|-----------------|-----------------|-----------------|
C|-----------------|-----------------|-----------------|-----------------|
G|-----------------|-----------------|-----------------|-----------------|
C|-2-2-2-2-2-2-2-2-|-4-4-4-4-4-4-4-4-|-7-7-7-7-7-7-7-7\|-0-0-0-0-0-0-0-0-|

   E E E E E E E E   E E E E E E E E   E E E E E E E E   E E E E E E E E
F|-----------------|-----------------|-----------------|-----------------|
C|-----------------|-----------------|-----------------|-----------------|
G|-----------------|-----------------|-----------------|-----------------|
C|-2-2-2-2-2-2-2-2-|-2-2-2-2-2-2-2-2-|-2-2-2-2-2-2-2-2-|-2-2-2-2-2-2-2-2-|

   E E E E E E E E   E E E E E E E E   E E E E E E E E   E E E E E E E E
F|-----------------|-----------------|-----------------|-----------------|
C|-----------------|-----------------|-----------------|-----------------|
G|-----------------|-----------------|-----------------|-----------------|
C|-7-7-7-7-7-7-7-7\|-2-2-2-2-2-2-2-2-|-7-7-7-7-7-7-7-7\|-0-0-0-0-0-0-0-0-|


CHORUS

   E E E E E E E E   E E E E E E E E   E E E E E E E E   E E E E E E E E
F|-----------------|-----------------|-----------------|-----------------|
C|-----------------|-----------------|-----------------|-----------------|
G|-----------------|-----------------|-----------------|-----------------|
C|-2-2-2-2-2-2-2-2-|-2-2-2-2-2-2-2-2-|-0-0-0-0-0-0-0-0-|-0-0-0-0-0-0-0-0-|

   E E E E E E E E   E E E E E E E E   E E E E E E E E   E E E E E E E E
F|-----------------|-----------------|-----------------|-----------------|
C|-----------------|-----------------|-----------------|-----------------|
G|-----------------|-----------------|-----------------|-----------------|
C|-2-2-2-2-2-2-2-2-|-2-2-2-2-2-2-2-2-|-5-5-5-5-5-5-5-5-|-0-0-0-0-0-0-0-0-|


BRIDGE

    H   H    W     W     W    E E E E E E E E   E E E E E E E E   E E E E E E E E
F|--------|-----|-----|-----|-----------------|-----------------|-----------------|
C|--------|-----|-----|-----|-----------------|-----------------|-----------------|
G|--------|-----|-----|-----|-----------------|-----------------|-0-0-0-0-0-0-0-0-|
C|-8\0----|-----|-----|-----|-2-2-2-2-2-2-2-2-|-5-5-5-5-5-5-5-5-|-----------------|

   E E E E E E E E
F|-----------------|
C|-----------------|
G|-----------------|
C|-0-0-0-0-0-0-0-0-|

   E E E E E E E E   E E E E E E E E   E E E E E E E E   E E E E E E E E
F|-----------------|-----------------|-----------------|-----------------|
C|-----------------|-----------------|-----------------|-----------------|
G|-----------------|-----------------|-----------------|-----------------|
C|-5-5-5-5-5-5-5-5-|-5-5-5-5-5-5-5-5-|-5-5-5-5-5-5-5-5-|-5-5-5-5-5-5-5-5-|

   E E E E E E E E   E E E E E E E E   E E E E E E E E   E E E E E E E E
F|-----------------|-----------------|-----------------|-----------------|
C|-----------------|-----------------|-----------------|-----------------|
G|-3-3-3-3-3-3-3-3-|-----------------|-3-3-3-3-3-3-3-3-|-----------------|
C|-----------------|-5-5-5-5-5-5-5-5-|-----------------|-3-3-3-3-3-3-3-3-|


CHORUS x1


BRIDGE II

   W     Q  Q  H       W     Q  Q  H       W       W       W       H   H
F|-----|-------------|-----|-------------|------|-------|-------|--------|
C|-----|-------------|-----|-------------|------|-------|-------|--------|
G|-----|-------------|-----|-------------|------|-------|-------|--------|
C|-2---|-2--2--2-----|-0---|-0--0--0-----|-2----|-(2)---|-(2)---|-(2)----|

      W
F|---------|
C|---------|
G|---------|
C|---------| x4

    W      TTTT                W      TTTT
F|--------|-----------------|--------|-----------------|
C|--------|-----------------|--------|-----------------|
G|--------|-----------------|--------|-----------------|
C|-14-\---|0000-------------|-14-\---|0000-------------|

   E E E E E E E E   E E E E E E E E   E E E E E E E E   E E E E E E E E
F|-----------------|-----------------|-----------------|-----------------|
C|-----------------|-----------------|-----------------|-----------------|
G|-----------------|-----------0-----|-----------------|-----------------|
C|-2-2-2-2-2-2-2-2-|-2-2-2-2-5---5-4-|-2-2-2-2-2-2-2-2-|-2-2-2-2-2-2-2-2-|

   E E E E E E E E   E E E E E E E E   E E E E E E E E   E E E E  Q  Q
F|-----------------|-----------------|-----------------|---------------|
C|-----------------|-----------------|-----------------|---------------|
G|-----------------|-----------0-----|-----------------|---------------|
C|-2-2-2-2-2-2-2-2-|-2-2-2-2-5---5-4-|-2-2-2-2-2-2-2-2-|-2-2-2-2--5--0-|


Guitar SOLO
play intro x2


INTERLUDE

   E E E E E E E E   E E E E E E E E   E E E E E E E E   E E E E E E E E
F|-----------------|-----------------|-----------------|-----------------|
C|-----------------|-----------------|-----------------|-----------------|
G|-----------------|-----------0-----|-----------------|-----------------|
C|-5-5-5-5-5-5-5-5-|-5-5-5-5-5---5-4-|-5-5-5-5-5-5-5-5-|-5-5-5-5-5-5-5-5-|

   E E E E E E E E   E E E E E E E E   E E E E E E E E       H     H
F|-----------------|-----------------|-----------------|-----------------|
C|-----------------|-----------------|-----------------|-----------------|
G|-----------------|-----------0-----|-----------------|-----------------|
C|-5-5-5-5-5-5-5-5-|-5-5-5-5-5---5-4-|-5-5-5-5-5-5-5-5-|-----1-----3-----|

     W
F|-------|
C|-------|
G|-------|
C|-------| x4


Last CHORUS / OUTRO

   E E E E E E E E   E E E E E E E E   E E E E E E E E   E E E E E E E E
F|-----------------|-----------------|-----------------|-----------------|
C|o----------------|-----------------|-----------------|-----------------|
G|o----------------|-----------------|-----------------|-----------------|
C|-5-5-5-5-5-5-5-5-|-5-5-5-5-5-5-5-5-|-3-3-3-3-3-3-3-3-|-3-3-3-3-3-3-3-3-|

   E E E E E E E E   E E E E E E E E   E E E E E E E E   E E E E E E E E
F|-----------------|-----------------|-----------------|-----------------|
C|-----------------|-----------------|-----------------|----------------o|
G|-----------------|-----------------|-1-1-1-1-1-1-1-1-|----------------o|
C|-5-5-5-5-5-5-5-5-|-5-5-5-5-5-5-5-5-|-----------------|-3-3-3-3-3-3-3-3-|x6

   E  E  Q  H
F|-------------|
C|-------------|
G|-------------|
C|-5-----------|

================================Duration Legend==============================
W - whole
H - half
Q - quarter
E - 8th
S - 16th
T - 32nd
X - 64th
. - dotted note
+ - tie
small letters represent staccato notes (half duration)
Duration letters always stand above the fret number. If a duration letter is
not connected to fret number it represents rest.

================================Tablature Legend=============================
h - hammer on
p - pull off
/ - slide up
\ - slide down
~ - vibrato
+ - represents harmonic when written under note
b - bend
pb- pre-bend
r - bend release (if no number after the r, then release immediately)
x - dead note
(n) - ghost note

|o
|o - repeat (start)

o|
o| - repeat (end)

x[number] after bar shows how many times the bar must be repeated
=============================================================================
            
Submit corrections

↑ Back to top | Tablatures and chords for acoustic guitar and electric guitar, ukulele, drums are parodies/interpretations of the original songs. You may use it for private study, scholarship, research or language learning purposes only