Home » N » Nightwish »

Nightwish - Nemo Bass

Artists:  A B C D E F G H I J K L M N O P Q R S T U V W X Y Z # 

Nemo Bass

(ver. 4) Click to play this song!
Nightwish


[Intro]

G|-----------------------|
D|-0(x16)--3(x8)---------|
A|----------------3(x8)--|
E|-----------------------|


[Verse 1]

G|------------------------------|-------------------------------------|
D|-0(x44)--2(x8)--5(x8)---------|-0(x32)--5(x8)--0(x8)--5(x8)---------|
A|-----------------------3(x8)--|------------------------------3(x8)--|
E|------------------------------|-------------------------------------|


[Chorus 1]

G|-0(x16)----------|-----------------------|
D|---------3(x16)--|-0(x16)--3(x8)---------|
A|-----------------|----------------3(x8)--|
E|-----------------|-----------------------|


[Verse 2]

G|-0(x8)--2(x8)--5(x8)---------|---------3(x8)---------3(x8)---------|
D|----------------------3(x8)--|-3(x32)---------3(x8)---------1(x8)--|
A|-----------------------------|-------------------------------------|
E|-----------------------------|-------------------------------------|


[Chorus 2]

G|-0(x16)----------|-----------------------|--------------------------|
D|---------3(x16)--|-0(x16)--3(x8)---------|-0--0-0-0--------------0--|
A|-----------------|----------------3(x8)--|------------3--3-3-3------|
E|-----------------|-----------------------|--------------------------|


[Instrumental]

G|----------------------|-----------------|-------------------------|-------------|
D|----------------------|-----------------|-------------------------|-------------|
A|-2--2-2-2---2--2-2-2--|-2(x12)-5-7-5-4--|-2(x16)--2(x12)-5-7-5-4--|-2(x12)-5-4--|
E|----------------------|-----------------|-------------------------|-------------|


[Solo]

G|-----------------------|
D|-0(x16)--3(x8)---------|  x2
A|----------------3(x8)--|
E|-----------------------|


[Bridge]

G|------------------------------|
D|-3(x32)--3(x16)--3(x8)-----1--|
A|------------------------4-----|
E|------------------------------|


[Chorus 3]

G|-----------------|---------1(x8)---------|-----------------|---------1(x8)---------|
D|-3(x16)--1(x16)--|-3(x16)---------1(x8)--|-3(x16)--1(x16)--|-3(x16)---------1(x8)--|
A|-----------------|-----------------------|-----------------|-----------------------|
E|-----------------|-----------------------|-----------------|-----------------------|


[Outro]

G|-----------------|---------1(x8)---------|
D|-3(x16)--1(x16)--|-3(x16)---------1(x8)--|  UNTIL SONG FADES AWAY
A|-----------------|-----------------------|
E|-----------------|-----------------------|             
Submit corrections

↑ Back to top | Tablatures and chords for acoustic guitar and electric guitar, ukulele, drums are parodies/interpretations of the original songs. You may use it for private study, scholarship, research or language learning purposes only