» » »

Nightwish - Wish I Had An Angel Tabs

Artists:  A B C D E F G H I J K L M N O P Q R S T U V W X Y Z # 

Wish I Had An Angel Tabs

(ver. 1) Click to play this song!
Nightwish
 Rating:
4/5 (4 votes)

 Wish I Had An Angel lessons Tabs too difficult? Try these video lessons and learn fast
 
                

Tune in Dropped D

Intro
e:-----------------------------------------------------------------------------|
B:-----------------------------------------------------------------------------|
G:-----------------------------------------------------------------------------|
D:-2-3-2--0-22-0-22--2-3-2--0-22--3-5-3-0--2-3-3--0-22--0-22--2-0-3-0-5-3-0-2--|
A:-2-3-2--0-22-0-22--2-3-2--0-22--3-5-3-0--2-3-2--0-22--0-22--2-0-3-0-5-3-0-2--|
D:-2-3-2--0-22-0-22--2-3-2--0-22--3-5-3-0--2-3-2--0-22--0-22--2-0-3-0-5-3-0-2--|
                                  . . . .

e:-----------------------------------------------------------------------------|
B:-----------------------------------------------------------------------------|
G:-----------------------------------------------------------------------------|
D:---2-0-3-0-5-3-0-2---22-66-55------------------------------------------------|
A:---2-0-3-0-5-3-0-2---22-66-55------------------------------------------------|
D:---2-0-3-0-5-3-0-2---22-66-55------------------------------------------------|


0.33
e:-----------------------------------------------------------------------------|
B:-----------------------------------------------------------------------------|
G:---------------------------------------------------7-------------------------|
D:--222222222222-3-0-222222222222-2222222222222222-5-7-------------------------|
A:--222222222222-3-0-222222222222-2222222222222222-5-5-------------------------|
D:--222222222222-3-0-222222222222-2222222222222222-5---------------------------|
    ............ . . ............ ................

e:-----------------------------------------------------------------------------|
B:-----------------------------------------------------------------------------|
G:--555555555555---------------------------------555555555555------------------|
D:--555555555555-4--0-2--0-2--0-2--0-2--2-5-4-0--555555555555-4--5--0-0--------|
A:--333333333333-4--0-2--0-2--0-2--0-2--2-5-4-0--333333333333-4--5--0-0--------|
D:---------------4--0-2--0-2--0-2--0-2--2-5-4-0---------------4--5--0-0--------|
                                        . . . .

0.56 chorus
e:-----------------------------------------------------------------------------|
B:-----------------------------------------------------------------------------|
G:----------------5555555555...-4/7--------------------222...-5/7--------------|
D:--222...-2-2-2--5555555555...-4/7--222...444...555...222...-5/7--2-3-2-0-22--|
A:--222...-2-2-2--3333333333...-2/5--222...444...555...000...-3/5--2-3-2-0-22--|
D:--222...-2-2-2---------------------222...444...555...------------2-3-2-0-22--|
    ......        .............      ........................

1.21
e:-----------------------------------------------------------------------------|
B:-----------------------------------------------------------------------------|
G:---------------------------------------------------7-------------------------|
D:--222222222222-3-0-222222222222-2222222222222222-5-7-------------------------|
A:--222222222222-3-0-222222222222-2222222222222222-5-5-------------------------|
D:--222222222222-3-0-222222222222-2222222222222222-5---------------------------|
    ............ . . ............ ................

e:-----------------------------------------------------------------------------|
B:-----------------------------------------------------------------------------|
G:--555555555555---------------------------------555555555555------------------|
D:--555555555555-4--0-2--0-2--0-2--0-2--2-5-4-0--555555555555-4--5--0-0--------|
A:--333333333333-4--0-2--0-2--0-2--0-2--2-5-4-0--333333333333-4--5--0-0--------|
D:---------------4--0-2--0-2--0-2--0-2--2-5-4-0---------------4--5--0-0--------|
                                        . . . .

1.45 chorus
e:-----------------------------------------------------------------------------|
B:-----------------------------------------------------------------------------|
G:----------------555...-4/7--------------------222...-5/7---------------------|
D:--222...-2-2-2--555...-4/7--222...444...555...222...-5/7--2-3-2-0-22---------|
A:--222...-2-2-2--333...-2/5--222...444...555...000...-3/5--2-3-2-0-22---------|
D:--222...-2-2-2--------------222...444...555...------------2-3-2-0-22---------|
    ......        ......      ........................

2.09
e:-----------------------------------------------------------------------------|
B:-----------------------------------------------------------------------------|
G:-----------------------------------------------------------------------------|
D:--0-22-2-2-2-2-2-2--3-0---5-3-2-0--------------------------------------------|
A:--0-22-2-2-2-2-2-2--3-0---5-3-2-0--------------------------------------------|
D:--0-22-2-2-2-2-2-2--3-0---5-3-2-0--------------------------------------------|
         . . . . . .

find the good ryhtm
e:-----------------------------------------------------------------------------|
B:-----------------------------------------------------------------------------|
G:----------------------------------55--------------------------------------5--|
D:--0-0-0-0-0-0...-2-3-0-0-0-0-0...-55--0-0-0-0-0-0...-2-3-0-0-0-0-0-0...-5-5--|
A:--0-0-0-0-0-0...-2-3-0-0-0-0-0...-33--0-0-0-0-0-0...-2-3-0-0-0-0-0-0...-5-3--|
D:--0-0-0-0-0-0...-2-3-0-0-0-0-0...-----0-0-0-0-0-0...-2-3-0-0-0-0-0-0...-5----|

when Marco sings
e:-----------------------------------------------------------------------------|
B:-----------------------------------------------------------------------------|
G:----------------------------------------------------------------3------------|
D:--2-2-2--2-3--2-2-2--2-0--2-2-2--2-3-5--0-2-3-0--2-2-2--2-3-2-2-3------------|
A:--2-2-2--2-3--2-2-2--2-0--2-2-2--2-3-5--0-2-3-0--2-2-2--2-3-2-2-1------------|
D:--2-2-2--2-3--2-2-2--2-0--2-2-2--2-3-5--0-2-3-0--2-2-2--2-3-2-2--------------|


e:-----------------------------------------------------------------------------|
B:-----------------------------------------------------------------------------|
G:-----------------------------------------------------------------------------|
D:---2-2-2--2-3-5--2-0-2-3-6---------------------------------------------------|
A:---2-2-2--2-3-5--2-0-2-3-6---------------------------------------------------|
D:---2-2-2--2-3-5--2-0-2-3-6---------------------------------------------------|


when Tarja sings
e:-----------------------------------------------------------------------------|
B:-----------------------------------------------------------------------------|
G:----------------------------------55--------------------------------------5--|
D:--0-0-0-0-0-0...-2-3-0-0-0-0-0...-55--0-0-0-0-0-0...-2-3-0-0-0-0-0-0...-5-5--|
A:--0-0-0-0-0-0...-2-3-0-0-0-0-0...-33--0-0-0-0-0-0...-2-3-0-0-0-0-0-0...-5-3--|
D:--0-0-0-0-0-0...-2-3-0-0-0-0-0...-----0-0-0-0-0-0...-2-3-0-0-0-0-0-0...-5----|


2.48
e:-----------------------------------------------------------------------------|
B:-----------------------------------------------------------------------------|
G:--3------------3-----------5-------------------------------------------------|
D:--3---2---0----3---2---3---5-------------------------------------------------|
A:--1---2---0----1---2---3---3-------------------------------------------------|
D:------2---0--------2---3-----------------------------------------------------|

3.13 chorus
e:-----------------------------------------------------------------------------|
B:-----------------------------------------------------------------------------|
G:----------------5555555555...-4/7--------------------222...-5/7--------------|
D:--222...-2-2-2--5555555555...-4/7--222...444...555...222...-5/7--------------|
A:--222...-2-2-2--3333333333...-2/5--222...444...555...000...-3/5--------------|
D:--222...-2-2-2---------------------222...444...555...------------------------|
    ......        .............      ........................

e:-----------------------------------------------------------------------------|
B:-----------------------------------------------------------------------------|
G:-----------------------------------------------------------------------------|
D:--2-3-2---0-22-0-22--2-3-2--0-22--3-5-3-0---2-3-3--0-22--0-22----------------|
A:--2-3-2---0-22-0-22--2-3-2--0-22--3-5-3-0---2-3-2--0-22--0-22----------------|
D:--2-3-2---0-22-0-22--2-3-2--0-22--3-5-3-0---2-3-2--0-22--0-22----------------|

e:-----------------------------------------------------------------------------|
B:-----------------------------------------------------------------------------|
G:-----------------------------------------------------------------------------|
D:---2-0-3-0-5-3-0-2---22-66-55------------------------------------------------|
A:---2-0-3-0-5-3-0-2---22-66-55------------------------------------------------|
D:---2-0-3-0-5-3-0-2---22-66-55------------------------------------------------|


3.48 (play this until the end)
e:----------------------------------------|----------|
B:----------------------------------------|----------|
G:----------------------------------------|----------|
D:--2-3-2--0-22-0-22--2-3-2--0-22-0-22----|--222-222-|
A:--2-3-2--0-22-0-22--2-3-2--0-22-0-22----|--222-222-|
D:--2-3-2--0-22-0-22--2-3-2--0-22-0-22----|--222-222-|
            
Submit corrections


        Wish I Had An Angel lessons Hard to play? Try these video lessons and learn fast Wish I Had An Angel lessons
        
↑ Back to top | Tablatures and chords for acoustic guitar and electric guitar, ukulele, drums are parodies/interpretations of the original songs. You may use it for private study, scholarship, research or language learning purposes only