» » »

Nightwish - For The Heart I Once Had Tabs

Artists:  A B C D E F G H I J K L M N O P Q R S T U V W X Y Z # 

For The Heart I Once Had Tabs

(ver. 2) Click to play this song!
Nightwish
 Rating:
4/5 (4 votes)

 For The Heart I Once Had lessons Tabs too difficult? Try these video lessons and learn fast
 
                Nightwish – For The Heart I Once Had

Tuning: D

Riff 1 
e --------------------------------------------------------------------------|
b --------------------------------------------------------------------------|
g --------------------------------------------------------------------------|
d -10-9-10------------------------------------------------------------------|
a ----------7--7-7-8-8-10-10-7-7-7/8-7-7-5-5--5/7-5-5-3-3~------------------|
d --------------------------------------------------------------------------|

Riff 2 
e --------------------------------------------------------------------------|
b --------------------------------------------------------------------------|
g --------------------------------------------------------------------------|
d -10-9-10------------------------------7--7--------------------------------|
a -------7--7-7-8-8-10-10-10-10-10-7-10------10-7-5~------------------------|
d --------------------------------------------------------------------------|

Riff 1 
e --------------------------------------------------------------------------|
b --------------------------------------------------------------------------|
g --------------------------------------------------------------------------|
d -10-9-10------------------------------------------------------------------|
a ----------7--7-7-8-8-10-10-7-7-7/8-7-7-5-5--5/7-5-5-3-3~------------------|
d --------------------------------------------------------------------------|

Riff 3 
e --------------------------------------------------------------------------|
b --------------------------------------------------------------------------|
g --------------------------------------------------------------------------|
d -10-9-10---------------------------------7--7-10-10-12-12--10~------------|
a ---------7--7-7-8-8-10-10-10-10-10-7-10-----------------------------------|
d --------------------------------------------------------------------------|

Chorus: (For the heart I never...)

e --------------------------------------------------------------------------|
b --------------------------------------------------------------------------|
g -----------------7-7-7-7--------------------------7-7-7-7-10-10-12-12-----|
d -7-7-7-7-2-2-2-2-7-7-7-7-7-7-7-7--7-7-7-7-2-2-2-2-7-7-7-7-10-10-12-12-----|
a -7-7-7-7-2-2-2-2-5-5-5-5-7-7-7-7--7-7-7-7-2-2-2-2-5-5-5-5-8--8--10-10-----|
d -5-5-5-5-0-0-0-0---------5-5-5-5--5-5-5-5-0-0-0-0-------------------------|

Riff 4 
e --------------------------------------------------------------------------|
b --------------------------------------------------------------------------|
g --------------------------------------------------------------------------|
d --------------------------------------------------------------------------|
a -7--7-8-10-10-7-7-7/8-7-7-5-5--5/7-3~-------------------------------------|
d --------------------------------------------------------------------------|

Riff 5 
e --------------------------------------------------------------------------|
b --------------------------------------------------------------------------|
g --------------------------------------------------------------------------|
d 10-9-10---------------------------------7--7------------------------------|
a ---------7--7-7-8-8-10-10-10-10-10-7-10--------10-7-5--3~-----------------|
d --------------------------------------------------------------------------|

Chorus: (For the heart I never...)

Riff 6 
e ------------------------------------------------------------------------|
b ------------------------------------------------------------------------|
g ------------------------------------------------------------------------|
d -5-7--2-3--3-5--2-7----5-7--2-3--3-5--2-7-------5-7\--------------------|
a -5-7--2-3--3-5--2-7----5-7--2-3--3-5--2-7-------5-7\--------------------|
d -3-5--0-1--1-3--0-5----3-5--0-1--1-3--0-5--5-5--3-5\--------------------|

Chorus(II): (For the heart I never...)
e ----------------------------------------------------------------------|
b ----------------------------------------------------------------------|
g -4-4-4-4-----------------4-4-4-4-4-4-4-4----------------------4~------|
d -4-4-4-4-4-4-4-4-2-2-7-7-4-4-4-4-4-4-4-4-4-4-4-4-2-2-5-5-7-7—-4~------|
a -2-2-2-2-4-4-4-4-2-2-7-7-2-2-2-2-2-2-2-2-4-4-4-4-2-2-5-5-7-7-—2~------|
d ---------2-2-2-2-0-0-5-5-----------------2-2-2-2-0-0-3-3-5-5----------|
            
Submit corrections


        For The Heart I Once Had lessons Hard to play? Try these video lessons and learn fast For The Heart I Once Had lessons
        
↑ Back to top | Tablatures and chords for acoustic guitar and electric guitar, ukulele, drums are parodies/interpretations of the original songs. You may use it for private study, scholarship, research or language learning purposes only