» » »

Nightwish - For The Heart I Once Had Tabs

Artists:  A B C D E F G H I J K L M N O P Q R S T U V W X Y Z # 

For The Heart I Once Had Tabs

(ver. 1) Click to play this song!
Nightwish
 Rating:
4/5 (4 votes)

 For The Heart I Once Had lessons Tabs too difficult? Try these video lessons and learn fast
 
                Band: Nightwish



The riff´s is allmost the same, just some few changes some places.


PLEASE RATE!!


Riff 1 (00.00:)
e --------------------------------------------------------------------------|
b --------------------------------------------------------------------------|
g --------------------------------------------------------------------------|
d -8-7-8--------------------------------------------------------------------|
a -------5--5-5-6-6-8-8-5-5-5/6-5-5-3-3--3/5-3-3-1-1~-----------------------|
d --------------------------------------------------------------------------|

Riff 2 (00.08:)
e --------------------------------------------------------------------------|
b --------------------------------------------------------------------------|
g --------------------------------------------------------------------------|
d -8-7-8--------------------------5--5--------------------------------------|
a -------5--5-5-6-6-8-8-8-8-8-5-8------8-5-3~-------------------------------|
d --------------------------------------------------------------------------|

Riff 1 (00.16:)
e --------------------------------------------------------------------------|
b --------------------------------------------------------------------------|
g --------------------------------------------------------------------------|
d -8-7-8--------------------------------------------------------------------|
a -------5--5-5-6-6-8-8-5-5-5/6-5-5-3-3--3/5-3-3-1-1~-----------------------|
d --------------------------------------------------------------------------|

Riff 3 (00.25:)
e --------------------------------------------------------------------------|
b --------------------------------------------------------------------------|
g --------------------------------------------------------------------------|
d -8-7-8--------------------------5--5-8-8-10-10--12~-----------------------|
a -------5--5-5-6-6-8-8-8-8-8-5-8-------------------------------------------|
d --------------------------------------------------------------------------|

01.06:

Verse: (For the heart I never...)
e --------------------------------------------------------------------------|
b --------------------------------------------------------------------------|
g --------------------------------------------------------------------------|
d -5-5-5-5-0-0-0-0-3-3-3-3-5-5-5-5-5-5-5-5-0-0-0-0-3-3-3-3-1-1-1-1-3-3-3-3--|
a -5-5-5-5-0-0-0-0-3-3-3-3-5-5-5-5-5-5-5-5-0-0-0-0-3-3-3-3-1-1-1-1-3-3-3-3--|
d -5-5-5-5-0-0-0-0-3-3-3-3-5-5-5-5-5-5-5-5-0-0-0-0-3-3-3-3-1-1-1-1-3-3-3-3--|

Riff 4 (01.35:)
e --------------------------------------------------------------------------|
b --------------------------------------------------------------------------|
g --------------------------------------------------------------------------|
d --------------------------------------------------------------------------|
a -5--5-6-8-8-5-5-5/6-5-5-3-3--3/5-1----------------------------------------|
d --------------------------------------------------------------------------|

Riff 5 (01.42:)
e --------------------------------------------------------------------------|
b --------------------------------------------------------------------------|
g --------------------------------------------------------------------------|
d 8-7-8--------------------------5--5---------------------------------------|
a ------5--5-5-6-6-8-8-8-8-8-5-8-----8-5-3--1~------------------------------|
d --------------------------------------------------------------------------|

(02.24:)

Verse (For the heart I never...)

Riff 6 (02.52:)
e --------------------------------------------------------------------------|
b --------------------------------------------------------------------------|
g --------------------------------------------------------------------------|
d -3-5--0-1--1-3--0-5----3-5--0-1--1-3--0-5-(5)-(5)-5-5\--------------------|
a -3-5--0-1--1-3--0-5----3-5--0-1--1-3--0-5-(5)-(5)-5-5\--------------------|
d -3-5--0-1--1-3--0-5----3-5--0-1--1-3--0-5-(5)-(5)-5-5\--------------------|

(03.16:)

Verse (For the heart I never...)
e --------------------------------------------------------------------------|
b --------------------------------------------------------------------------|
g -2-2-2-2-----------------2-2-2-2-2-2-2-2----------------------------------|
d -2-2-2-2-2-2-2-2-5-5-5-5-2-2-2-2-2-2-2-2-2-2-2-2-5-5-5-5-3-3-5-5~---------|
a -0-0-0-0-2-2-2-2-5-5-5-5-0-0-0-0-0-0-0-0-2-2-2-2-5-5-5-5-3-3-5-5~---------|
d ---------2-2-2-2-5-5-5-5-----------------2-2-2-2-5-5-5-5-3-3-5-5~---------|

FIN
            
Submit corrections


        For The Heart I Once Had lessons Hard to play? Try these video lessons and learn fast For The Heart I Once Had lessons
        
↑ Back to top | Tablatures and chords for acoustic guitar and electric guitar, ukulele, drums are parodies/interpretations of the original songs. You may use it for private study, scholarship, research or language learning purposes only