» » »

Nickelback - How You Remind Me E Tabs

Artists:  A B C D E F G H I J K L M N O P Q R S T U V W X Y Z # 

How You Remind Me E Tabs

(ver. 3) Click to play this song!
Nickelback
 Rating:
4/5 (4 votes)

 How You Remind Me E lessons Tabs too difficult? Try these video lessons and learn fast
 
                


VERSES (clean)

Bm        D      A       E
--2----|--2----|--0----|--0--
--3----|--3----|--2----|--0--
--4----|--2----|--2----|--1--
--4----|--0----|--2----|--2--
--2----|--0----|--0----|--2--
--2----|--0----|--0----|--0--

there is  a part in the song when Chad says : “ and this is how you remind me “ that goes picking but is the same notes .


CHORUS ( distortion ) 


Bm        D      A       E
--2----|--2----|--0----|--0--
--3----|--3----|--2----|--0--
--4----|--2----|--2----|--1--
--4----|--0----|--2----|--2--
--2----|--0----|--0----|--2--
--2----|--0----|--0----|--0—


BRIDGE  ( clean )

Bm        D      A       E
--2----|--2----|--0----|--0--
--3----|--3----|--2----|--0--
--4----|--2----|--2----|--1--
--4----|--0----|--2----|--2--
--2----|--0----|--0----|--2--
--2----|--0----|--0----|--0--


Artist . Nickelback
Song : How you remind me 
            
Submit corrections


        How You Remind Me E lessons Hard to play? Try these video lessons and learn fast How You Remind Me E lessons
        
↑ Back to top | Tablatures and chords for acoustic guitar and electric guitar, ukulele, drums are parodies/interpretations of the original songs. You may use it for private study, scholarship, research or language learning purposes only