» » »

Nickelback - How You Remind Me Bass

Artists:  A B C D E F G H I J K L M N O P Q R S T U V W X Y Z # 

How You Remind Me Bass

(ver. 6) Click to play this song!
Nickelback
 Rating:
4.4/5 (5 votes)

 How You Remind Me lessons Tabs too difficult? Try these video lessons and learn fast
 
                [Intro]
Rest for 8 bars

[Pre-Chorus]
G|-----------------|-----------------|-----------------|-----------------|
D|-----------------|-----------------|-----------------|-----------------|
A|-3-3-3-3---------|-1-1-1-1---------|-3-3-3-3---------|-1-1-1-1---------|
D|---------3-3-3-3-|---------1-1-1-1-|---------3-3-3-3-|---------1-1-1-1-|

[Chorus]
G|-----------------|-----------------|-----------------|-----------------|
D|-----------------|-----------------|-----------------|-----------------|
A|-3-3-3-5-6-6-6-6-|-1-1-1-1---------|-3-3-3-5-6-6-6-6-|-1-1-1-1---------|
D|-----------------|---------3-3-3-3-|-----------------|---------3-3-3-3-|

G|-----------------|-----------------|-----------------|-----------------|
D|-----------------|-----------------|-----------------|-----------------|
A|-3-3-------------|-1-1-1-1---------|-3-3-3-3/6-6-6-6-|-1-1-1-1---------|
D|---------1-1-----|---------3-3-3-1-|-----------------|---------3-3/5\3-|

[Post Chorus]   
                                                             s s   s s
G|-----------------|-----------------|-----------------|---------------------|
D|-----------------|-----------------|-----------------|---------------------|
A|-3---------------|-1---------------|-3---------------|-1---1-1-------------|
D|--------3-3------|---------1-1---1-|---------3-3-----|-----------0-1-1---1-|

[Verse]
                                                                 s s
G|-----------------|-----------------|-----------------|-------------------|
D|-----------------|-----------------|-----------------|-------------------|
A|-3---------------|-1---------------|-3---------------|-1-----------------|
D|--------3-3------|---------1-1---1-|---------3-3-----|---------0-1-1-1-1-|

[Pre-Chorus 2]
G|-----------------|-----------------|-----------------|-----------------|
D|-----------------|-----------------|-----------------|-----------------|
A|-3---------------|-1---------------|-3---------------|-1-1-1-1---------|
D|---------3-3-----|---------1-1---1-|---------3-3-----|---------1-1-1-1-|

[Chorus 2]
G|-----------------|-----------------|-----------------|-----------------|
D|-----------------|-----------------|-----------------|-----------------|
A|-3-3-3-5-6-6-6-6-|-1-1-1-1---------|-3-3-3-5-6-6-6-6-|-1-1-1-1---------|
D|-----------------|---------3-3-3-3-|-----------------|---------3-3-3\1-|

G|-----------------|-----------------|-----------------|-----------------|
D|-----------------|-----------------|-----------------|-----------------|
A|-3-3-------------|-1-1-1-1---------|-3-3-3-3/6-6-6-6-|-1-1-1-1---------|
D|---------1-1-----|---------3-3-3-1-|-----------------|---------3-3-3-3-|

[Post Chorus 2]
G|-----------------|-----------------|-----------------|-----------------|
D|-----------------|-----------------|-----------------|-----------------|
A|-3---------------|-1---------------|-3---------------|-1---------------|
D|---------3-3---3-|---------1-1---1-|---------3-3-----|---------1-1---1-|

G|-----------------|-----------------|-----------------|-----------------|
D|-----------------|-----------------|-----------------|-----------------|
A|-3---------------|-1---------------|-3---------------|-1-------6-6-6-5-|
D|---------3-3---3-|---------1-1---1-|---------3-3-----|-----------------|

G|-----------------|-----------------|
D|-----------------|-----------------|
A|-3---------------|-----------------|
D|-----------------|-----------------|

Rest 8 bars

[Pre-Chorus 3]
G|-12----------------|-10---------------|------------------|-----------------|
D|----------10-------|----------8-------|-10---------------|-----------------|
A|-------------------|------------------|----------8-------|-1-1-1-1---------|
D|-------------------|------------------|------------------|---------3-3-3-3-|

[Chorus 3]
G|-----------------|-----------------|-----------------|-----------------|
D|-----------------|-----------------|-----------------|-----------------|
A|-3-3-3-5-6-6-6-6-|-1-1-1-1---------|-3-3-3-5-6-6-6-6-|-1---------------|
D|-----------------|---------3-3-3-3-|-----------------|-----------------|

G|-----------------|-----------------|-----------------|-----------------|
D|-----------------|-----------------|-----------------|-----------------|
A|-3-3-------------|-1-1-1-1---------|-3-3-3-3---------|-1-1-1-1---------|
D|---------1-1-----|---------3-3-3-3-|---------1-1-1-1-|---------3-3-3\1-|

[Post Chorus 3]
G|-----------------|-----------------|-----------------|-----------------|
D|-----------------|-----------------|-----------------|-----------------|
A|-3-----3/6-6---6-|-1---------------|-3-3-3-3/6-6-6-6-|-1-1-1-1---------|
D|-----------------|---------3-3-3-1-|-----------------|---------3-3-3-3-|

G|-----------------|-----------------|-----------------|-----------------|
D|-----------------|-----------------|-----------------|-----------------|
A|-3-3-3-3/6-6-6-6-|-1-1-1-1---------|-3-3-3-3/6-6-6-1-|-1---------------|
D|-----------------|---------3-3-3-3-|-----------------|-----------------|            
Submit corrections


        How You Remind Me lessons Hard to play? Try these video lessons and learn fast How You Remind Me lessons
        
↑ Back to top | Tablatures and chords for acoustic guitar and electric guitar, ukulele, drums are parodies/interpretations of the original songs. You may use it for private study, scholarship, research or language learning purposes only