» » »

Nickelback - How You Remind Me Bass

Artists:  A B C D E F G H I J K L M N O P Q R S T U V W X Y Z # 

How You Remind Me Bass

(ver. 1) Click to play this song!
Nickelback
 Rating:
4/5 (4 votes)

 How You Remind Me lessons Tabs too difficult? Try these video lessons and learn fast
 
                I wanna thank him for getting this song spot on for a 5-stringer.



bass comes in at about 17 seconds
                     2 times               2 times
G:|---------------------|---------------------|----------------|
D:|*-------------------*|*-------------------*|55-88-----------|
A:|--3333---------------|-3333-6666-----------|33-66-----------|
E:|*-----1111-6666-----*|*----------6666-----*|------6666------|
B:|----------------4444-|----------------6665-|-----------6665-|

                                             5 times
G:|---------------------|-------------------------|
D:|---------------------|*-----------------------*|
A:|-3333-6666-----------|--3-(3)------------------|
E:|-----------6666------|*------1-1--6-(6)-------*|
B:|----------------6665-|-----------------4-4-(4)-|

                                       2 times
G:|------------------|---------------------|----------------|
D:|------------------|*-------------------*|55-88-----------|
A:|3-3---------------|-3333-6666-----------|33-66-----------|
E:|---11--66666------|*----------6666-----*|------6666------|
B:|-------------4444-|----------------6665-|-----------6665-|

                                              4 times
G:|--------------------|--------------------------|---|wait through
D:|--------------------|*------------------------*|---|the mellow
A:|-3333-6666----------|--3-(3)-------------------|3~-|part from
E:|-----------6666-----|*-------1-1--6-(6)-------*|---|about 2:09 till
B:|----------------6665|------------------4-4-(4)-|---|about 2:36

played very soft     heavy
G:|---------|----------------|--------------------|------------| rest
D:|---------|----------------|--------------------|------------| for
A:|3--------|3---------------|3333-6666-----------|3333-6666---| a
E:|--1--6---|--1--6\666------|----------6666------|----------6-| sec
B:|-------4-|-----------4444-|---------------6665-|------------|

                                     4 times
G:|----------------|---------------------|---------------|
D:|55-88-----------|*-------------------*|---------------|
A:|33-66-----------|-3333-6666-----------|-3333-6666-----|
E:|------6666------|*----------6666-----*|-----------6~~-|
B:|-----------6665-|----------------6665-|---------------|

If you have a 4-stringer follow steve's tab accept:

for B:|-6-| play E:|-1-|
for B:|-5-| play E:|-0-|
for B:|-4-| play E:|-4-| (sounds good anyway)
            
Submit corrections


        How You Remind Me lessons Hard to play? Try these video lessons and learn fast How You Remind Me lessons
        
↑ Back to top | Tablatures and chords for acoustic guitar and electric guitar, ukulele, drums are parodies/interpretations of the original songs. You may use it for private study, scholarship, research or language learning purposes only