» » »

Nickelback - Figured You Out Chords

Artists:  A B C D E F G H I J K L M N O P Q R S T U V W X Y Z # 

Figured You Out Chords

(ver. 1) Click to play this song!
Nickelback
 Rating:
4/5 (4 votes)

 Figured You Out lessons Tabs too difficult? Try these video lessons and learn fast
 
                nickelback- figured you out

it's a very easy song 
you got to play it in dropped d

E -----------------------------------------------------------------------
B -----------------------------------------------------------------------
G 55xxx55xxx55xxx55xxx----------------------------------------55xxx55xxx5
D 55xxx55xxx55xxx55xxx11xxx11xxx11xxx11xxx33xxx33xxx33xxx33xxx55xxx55xxx5
A 33xxx33xxx33xxx33xxx11xxx11xxx11xxx11xxx33xxx33xxx33xxx33xxx33xxx33xxx3
E --------------------11xxx11xxx11xxx11xxx33xxx33xxx33xxx33xxx-----------

Verse

E -------------------------------
B -------------------------------
G ----------------5-5-5-5-5-5-5-5
D 3-3-3-3-1-1-1-1-5-5-5-5-5-5-5-5
A 3-3-3-3-1-1-1-1-3-3-3-3-3-3-3-3
E 3-3-3-3-1-1-1-1----------------
            
Submit corrections


        Figured You Out lessons Hard to play? Try these video lessons and learn fast Figured You Out lessons
        
↑ Back to top | Tablatures and chords for acoustic guitar and electric guitar, ukulele, drums are parodies/interpretations of the original songs. You may use it for private study, scholarship, research or language learning purposes only