Home » N » Nickelback »

Nickelback - Follow You Home Tabs

Artists:  A B C D E F G H I J K L M N O P Q R S T U V W X Y Z # 

Follow You Home Tabs

(ver. 1) Click to play this song!
Nickelback
Album:All the right reasons

INTRO
e-------------------------------------------------------------------------|
b-------------------------------------------------------------------------|
g----------------------------------5---5/1--------------------------5/1---|
d--5-5-3-5-8-5-3---5-3-5-8-5-3-5---5---5/1-----5-3-5-8-5-3-5---1----5/1---|
a--5-5-3-5-8-5-3---5-3-5-8-5-3-5---3---3/3-----5-3-5-8-5-3-5---1----3/3---|
d--5-5-3-5-8-5-3---5-3-5-8-5-3-5---------------5-3-5-8-5-3-5---1----------|


SOLO INTRO

e---------------------------------------------------|
b----------------------------------------6-------11-|
g-----3----------3-----------3-----3-5-7-----12-----| I don't know the rest
d--5-----5--5-------5---5-----5---------------------|
a---------------------------------------------------|
d---------------------------------------------------|

Verse:

e---------------------------------------------------------|
b---------------------------------------------------------|
g------------------5---5/1--------------------------5/1---|
d--5-3-5-8-5-3-5---5---5/1-----5-3-5-8-5-3-5---1----5/1---|
a--5-3-5-8-5-3-5---3---3/3-----5-3-5-8-5-3-5---1----3/3---|
d--5-3-5-8-5-3-5---------------5-3-5-8-5-3-5---1----------|

Bridge:

I'm staying alive

e----------------------------------------------------------------|
b----------------------------------------------------------------|
g-------5~-----------------5---5/1--------------------------5/1--|
d--1~---5~---5-3-5-8-3-5---5---5/1-----5-3-5-8-5-3-5---1----5/1--|
a--1~---3~---5-3-5-8-3-5---3---3/1-----5-3-5-8-5-3-5---1----3/3--|
d--1~--------5-3-5-8-3-5---------------5-3-5-6-5-3-5---1---------|

Chorus:

e-------------------------|
b-------------------------|
g-----------5-3/----------|
d--5/-----3-5-3/----1-3---|after that verse!!!
a--5/-----3-3-1/----1-3---|
d--5/-----3---------1-3---|

I think this are the cords for this song! If someone know the solo of this song please 
            
Submit corrections

↑ Back to top | Tablatures and chords for acoustic guitar and electric guitar, ukulele, drums are parodies/interpretations of the original songs. You may use it for private study, scholarship, research or language learning purposes only