» » »

Nickelback - Hangnail Tabs

Artists:  A B C D E F G H I J K L M N O P Q R S T U V W X Y Z # 

Hangnail Tabs

(ver. 3) Click to play this song!
Nickelback
 Rating:
4/5 (4 votes)

 Hangnail lessons Tabs too difficult? Try these video lessons and learn fast
 
                .:[Tab: Nickelback - Hangnail (Intro)]:.


E|-----------------------------------------------------------|
B|-----------------------------------------------------------|
G|-----------------------------------------------------------|
D|--7/9/4--6-7-6-7-6-7-6-7/12-9-9--6-7-6-7-6-7-6-7/14-12-12--|
A|--7/9/4--6-7-6-7-6-7-6-7/12-9-9--6-7-6-7-6-7-6-7/14-12-12--|
D|--7/9/4--6-7-6-7-6-7-6-7/12-9-9--6-7-6-7-6-7-6-7/14-12-12--|

E|-----------------------------------------------------------|
B|-----------------------------------------------------------|
G|-----------------------------------------------------------|
D|--6-7-6-7-6-7-6-7/9--2--0--7--6--7/9-9--6-7-6-7-6-7-6-7/12-|
A|--6-7-6-7-6-7-6-7/9--2--0--7--6--7/9-9--6-7-6-7-6-7-6-7/12-|
D|--6-7-6-7-6-7-6-7/9--2--0--7--6--7/9-9--6-7-6-7-6-7-6-7/12-|

E|-----------------------------------------------------------|
B|-----------------------------------------------------------|
G|-----------------------------------------------------------|
D|--9-9--6-7-6-7-6-7/14-12-12--6-7-6-7-6-7-6-7/9--2--0--7--6-|
A|--9-9--6-7-6-7-6-7/14-12-12--6-7-6-7-6-7-6-7/9--2--0--7--6-|
D|--9-9--6-7-6-7-6-7/14-12-12--6-7-6-7-6-7-6-7/9--2--0--7--6-|

E|-----------------------------------------------------------|
B|-----------------------------------------------------------|
G|-----------------------------------------------------------|
D|--7/9-9----------------------------------------------------|
A|--7/9-9----------------------------------------------------|
D|--7/9-9----------------------------------------------------|
            
Submit corrections


        Hangnail lessons Hard to play? Try these video lessons and learn fast Hangnail lessons
        
↑ Back to top | Tablatures and chords for acoustic guitar and electric guitar, ukulele, drums are parodies/interpretations of the original songs. You may use it for private study, scholarship, research or language learning purposes only