Home » N » Nickelback »

Nickelback - Hangnail Tabs

Artists:  A B C D E F G H I J K L M N O P Q R S T U V W X Y Z # 

Hangnail Tabs

(ver. 2) Click to play this song!
Nickelback
 Rating:
4/5 (5 votes)
                *I fixed the interlude and added the verse, thanks to tan man...
It would be nice if some more of you could rate this tab so i 
know I havent been wasting my time...

*I know the song is played in a different tuning, but it oh well...
It dosent matter how it's tuned, as long as the notes are right.
And besides, I dont feel like untuning my guitar every time I want to play a Nickelback song...


Intro:

e------------------------------------------------------------------------------------
b------------------------------------------------------------------------------------
g------------------------------------------------------------------------------------
d------------------------------------------------------------------------------------
a-------------------------------------------------------------------------5--5-------
E---/7--7---0--5--0--4--0--5--0--5--0---7--7---0--5--0--4--0--5--0--5--0--------0--5-

e-------------------------------------------
b-------------------------------------------
g-------------------------------------------
d-------------------------------------------
a------------------------------7---5---7----
E-0--4--0--5--0--5--0---7---5---------------



Verse:

e----------------------------------------------------------------------------------
b----------------------------------------------------------------------------------
g----------------------------------------------------------------------------------
d----------------------------------------------------------------------------------
a--------------------5-------7-------------------------5------7----9-9-9---7---6\--
E--/7--7--0--0--0h3-----0h5--------/10--10--0--0--0h3----0h5-------7-7-7---5---4\--
          *  *                              *  *
Chorus:

e----------------------
b----------------------
g-----4----7----9------
d-----4----7----9------
a-----2----5----7------
E----------------------


Interlude:

e-------------------------------
b-------------------------------
g---7b--------------------------
d-----------7-------------------
a-----------5----------3--5-----
E----------------0--0-----------
                 *  *



Im not 100% sure about the interlude, but the rest sounds good enough.

THIS SITE NEEDS MORE NICKELBACK TABS!!!
            
Submit corrections

↑ Back to top | Tablatures and chords for acoustic guitar and electric guitar, ukulele, drums are parodies/interpretations of the original songs. You may use it for private study, scholarship, research or language learning purposes only