» » »

Nickelback - Do This Anymore Tabs

Artists:  A B C D E F G H I J K L M N O P Q R S T U V W X Y Z # 

Do This Anymore Tabs

(ver. 3) Click to play this song!
Nickelback
 Rating:
4/5 (4 votes)

 Do This Anymore lessons Tabs too difficult? Try these video lessons and learn fast
 
                Tuning Low to High: (C,G,C,F,A,D)

ALL GUITARS DISTORTED EXCEPT ACOUSTIC
Guitar 1: Chad: Rhythm
Guitar 2: Ryan: Rhythm
Guitar 3: Ryan: Lead with phaser/flanger
Guitar 4: Chad: Solo
Guitar 5: Ryan: Acoustic Guitar
Guitar 6: Chad: Intro w/vibrato

Intro

Guitar 6
1-------------------------------------------------|
2-------------------------------------------------|
3-------------------------------------------------|
4-------------------------------------------------|
5-5~--------------------3-------------------------|
6-5~----8--3--10--5--8--3--x----------------------|

Verse 1:

Guitar 1+2
1-------------------------------------------------|
2-------------------------------------------------|
3-------------------------------------------------|
4-55555555-88888888-33333333-1010101010101010-----|  X2
5-55555555-88888888-33333333-1010101010101010-----|
6-55555555-88888888-33333333-1010101010101010-----|
  ........ ........ ........ ................

Guitar 3 (flanger)
1-------10~-----------10~----------8~-----------10h12p10p8-|
2----10~---10~-----10~---10~----10~--10~----10~------------|
3-10~-----------10~----------10~---------10~---------------|  X2
4----------------------------------------------------------|
5----------------------------------------------------------|
6----------------------------------------------------------|

Pre-Chorus:

Guitar 1+2
1--------------------------------------------------|
2--------------------------------------------------|
3------------------5-5-5-5-5-5x--------------------|
4--3-3-3-3-3-3-3-3-5-5-5-5-5-5x--------------------|
5--3-3-3-3-3-3-3-3-3-3-3-3-3-3x--------------------|
6--3-3-3-3-3-3-3-3---------------------------------|
   . . . . . . . . . .

Chorus:

Guitar 1+2
1-----------------------------------------------------|
2-----------------------------------------------------|
3-----------------------------------------------------|
4--10h12-00-0/12-33-3/88-0-8h101010-8h101010----------|
5--10h12-00-0/12-33-3/88-0-8h101010-8h101010----------|
6--10h12-00-0/12-33-3/88-0-8h101010-8h101010----------|
                               . .      . .

1---------------------------------------------------|
2---------------------------------------------------|
3---------------------------------------------------|
4------00-0/12-33-3/88-0-8h101010-8h101010----------|
5------00-0/12-33-3/88-0-8h101010-8h101010----------|
6------00-0/12-33-3/88-0-8h101010-8h101010----------|
                       .

1---------------------------------------------------|
2-33------------------------------------------------|
3-22--------------3333------------------------------|
4-00-xxxx-33-xx-x-3333-0-5-0-(3)-(10)---------------| X2
5-00-xxxx-33-xx-x-1111-0-5-0-(3)-(10)---------------|
6-00-xxxx-33-xx-x------0-5-0-(3)-(10)---------------|
                       .   . 1st 2nd

1---------------------------------------------------|
2---------------------------------------------------|
3-33333333----------55555555------------------------|
4-33333333-33333333-55555555--0-5-0-8---------------|
5-11111111-33333333-33333333--0-5-0-8---------------|
6----------33333333-----------0-5-0-8---------------|
                              .   .

Pre-Verse:

Guitar 1+2
1-------------------------------------------------|
2-------------------------------------------------|
3-------------------------------------------------|
4-55555555-88888888-33333333-1010101010101010-----|
5-55555555-88888888-33333333-1010101010101010-----|
6-55555555-88888888-33333333-1010101010101010-----|
  ........ ........ ........ ................

Guitar 3
1-----------------------------------10h12p10p8---10h12p10p8-|
2-----10--10-----8--10-------------------------8------------|
3-77----10---77---10---77-9h10-1010-------------------------|
4-----------------------------------------------------------|
5-----------------------------------------------------------|
6-----------------------------------------------------------|
  ..         ..        ..      . .             .

Verse 2:

Guitar 1+2
1-------------------------------------------------|
2-------------------------------------------------|
3-------------------------------------------------|
4-------------------------------------------------|
5-5~----------------------------------------------|
6-5~----8--3--10--5--8--3--10---------------------|

Guitar 3 (phaser)
1-------------------------------------------------|
2--10~---10~-8~---8~---10~---10~--8~---8~---------|
4-----10~------10~--------10~-------10~-----------|
4-------------------------------------------------|
5-------------------------------------------------|
6-------------------------------------------------|

Guitar 1+2
1-------------------------------------------------|
2-------------------------------------------------|
3-------------------------------------------------|
4-55555555-88888888-33333333-1010101010101010-----|  X2
5-55555555-88888888-33333333-1010101010101010-----|
6-55555555-88888888-33333333-1010101010101010-----|
  ........ ........ ........ ................

Guitar 3 (flanger)
1-------10~-----------10~----------8~-----------10h12p10p8-|
2----10~---10~-----10~---10~----10~--10~----10~------------|
3-10~-----------10~----------10~---------10~---------------|  X2
4----------------------------------------------------------|
5----------------------------------------------------------|
6----------------------------------------------------------|


Pre-Chorus:

Guitar 1+2
1--------------------------------------------------|
2--------------------------------------------------|
3------------------5-5-5-5-5-5x--------------------|
4--3-3-3-3-3-3-3-3-5-5-5-5-5-5x--------------------|
5--3-3-3-3-3-3-3-3-3-3-3-3-3-3x--------------------|
6--3-3-3-3-3-3-3-3---------------------------------|
   . . . . . . . . . .

Guitar 3 (no effect)
1-------------------------------|
2-10~~~~~~~~~~------------------|
3-*-----------------------------|
4-------------------------------|
5-------------------------------|
6-------------------------------|

Chorus:

Guitar 1+2
1-----------------------------------------------------|
2-----------------------------------------------------|
3-----------------------------------------------------|
4--10h12-00-0/12-33-3/88-0-8h101010-8h101010----------|
5--10h12-00-0/12-33-3/88-0-8h101010-8h101010----------|
6--10h12-00-0/12-33-3/88-0-8h101010-8h101010----------|
                               . .      . .

1---------------------------------------------------|
2---------------------------------------------------|
3---------------------------------------------------|
4------00-0/12-33-3/88-0-8h101010-8h101010----------|
5------00-0/12-33-3/88-0-8h101010-8h101010----------|
6------00-0/12-33-3/88-0-8h101010-8h101010----------|
                       .

1---------------------------------------------------|
2-33------------------------------------------------|
3-22--------------3333------------------------------|
4-00-xxxx-33-xx-x-3333-0-5-0-(3)-(10)---------------| X2
5-00-xxxx-33-xx-x-1111-0-5-0-(3)-(10)---------------|
6-00-xxxx-33-xx-x------0-5-0-(3)-(10)---------------|
                       .   . 1st 2nd

1---------------------------------------------------|
2---------------------------------------------------|
3-33333333----------55555555------------------------|
4-33333333-33333333-55555555--0-5-0-8---------------|
5-11111111-33333333-33333333--0-5-0-8---------------|
6----------33333333-----------0-5-0-8---------------|
                              .   .

1---------------------------------------------------|
2---------------------------------------------------|
3-33333333----------5555555555555555----------------|
4-33333333-33333333-5555555555555555----------------|
5-11111111-33333333-3333333333333333----------------|
6----------33333333---------------------------------|

SOLO:

Guitar 1+2
1---------------------------------------------------|
2---------------------------------------------------|
3---------------------------------------------------|
4-0000-3333-8888-10101010-0000-3333-8888-10101010---|
5-0000-3333-8888-10101010-0000-3333-8888-10101010---|
6-0000-3333-8888-10101010-0000-3333-8888-10101010---|

1---------------------------------------------------|
2---------------------------------------------------|
3---------------------------------------------------|
4-8888-3333-10101010-0-5-0-3-8888-3333-10~~~~-------|
5-8888-3333-10101010-0-5-0-3-8888-3333-10~~~~-------|
6-8888-3333-10101010-0-5-0-3-8888-3333-10~~~~-------|
                     .   .

Guitar 4
1---------------------------------------------------------|
2---------------------------------------------------------|
3---------------------------------------------------------|
4--//////12~-10~--1514-17151415-12~-10~--1514-15h17-17h19-|
5---------------------------------------------------------|
6---------------------------------------------------------|

1---------------------------------------------------------|
2----------18b22r18-16-18b22r18-16------------------------|
3-17h19p17--------------------------17h19-17h19-----------|
4---------------------------------------------------------|
5---------------------------------------------------------|
6---------------------------------------------------------|

1---------------------------------------------------------|
2----18b22r18-16-18b22r18--16~--18grad.b22~---------------|
3-17------------------------------------------------------|
4---------------------------------------------------------|
5---------------------------------------------------------|
6---------------------------------------------------------|

Bridge:

Guitar 5
1------------------------------|
2------------------------------|
3------------------------------|
4-5~-8~-3~-10~-5~-8~-3~x-------|
5-5~-8~-3~-10~-5~-8~-3~x-------|
6-5~-8~-3~-10~-5~-8~-3~x-------|

Verse 3:

Guitar 1+2
1-------------------------------------------------|
2-------------------------------------------------|
3-------------------------------------------------|
4-55555555-88888888-33333333-1010101010101010-----|  X2
5-55555555-88888888-33333333-1010101010101010-----|
6-55555555-88888888-33333333-1010101010101010-----|
  ........ ........ ........ ................

Guitar 3 (flanger)
1-------10~-----------10~----------8~-----------10h12p10p8-|
2----10~---10~-----10~---10~----10~--10~----10~------------|
3-10~-----------10~----------10~---------10~---------------|  X2
4----------------------------------------------------------|
5----------------------------------------------------------|
6----------------------------------------------------------|

Pre-Chorus:

Guitar 1+2
1--------------------------------------------------|
2--------------------------------------------------|
3------------------5-5-5-5-5-5x--------------------|
4--3-3-3-3-3-3-3-3-5-5-5-5-5-5x--------------------|
5--3-3-3-3-3-3-3-3-3-3-3-3-3-3x--------------------|
6--3-3-3-3-3-3-3-3---------------------------------|
   . . . . . . . . . .

Chorus:

1-----------------------------------------------------|
2-----------------------------------------------------|
3-----------------------------------------------------|
4--10h12-00-0/12-33-3/88-0-8h101010-8h101010----------|
5--10h12-00-0/12-33-3/88-0-8h101010-8h101010----------|
6--10h12-00-0/12-33-3/88-0-8h101010-8h101010----------|
                               . .      . .

1---------------------------------------------------|
2---------------------------------------------------|
3---------------------------------------------------|
4------00-0/12-33-3/88-0-8h101010-8h101010----------|
5------00-0/12-33-3/88-0-8h101010-8h101010----------|
6------00-0/12-33-3/88-0-8h101010-8h101010----------|
                       .

1---------------------------------------------------|
2-33------------------------------------------------|
3-22--------------3333------------------------------|
4-00-xxxx-33-xx-x-3333-0-5-0-(3)-(10)---------------| X2
5-00-xxxx-33-xx-x-1111-0-5-0-(3)-(10)---------------|
6-00-xxxx-33-xx-x------0-5-0-(3)-(10)---------------|
                       .   . 1st 2nd

1---------------------------------------------------|
2---------------------------------------------------|
3-33333333----------55555555------------------------|
4-33333333-33333333-55555555--0-5-0-8---------------|
5-11111111-33333333-33333333--0-5-0-8---------------|
6----------33333333-----------0-5-0-8---------------|
                              .   .

1---------------------------------------------------|
2---------------------------------------------------|
3-33333333----------55555555------------------------|
4-33333333-33333333-55555555--0-5-0-3---------------|
5-11111111-33333333-33333333--0-5-0-3---------------|
6----------33333333-----------0-5-0-3---------------|
                    ........  .   .

1---------------------------------------------------|
2---------------------------------------------------|
3-33333333----------55555555------------------------|
4-33333333-33333333-55555555--0-5-0-8---------------|
5-11111111-33333333-33333333--0-5-0-8---------------|
6----------33333333-----------0-5-0-8---------------|
                              .   .

1---------------------------------------------------|
2---------------------------------------------------|
3-33333333----------5~~~~~~~~~~~~~~~~~~~~~~~~~~~~~~-|
4-33333333-33333333-5~~~~~~~~~~~~~~~~~~~~~~~~~~~~~~-|
5-11111111-33333333-3~~~~~~~~~~~~~~~~~~~~~~~~~~~~~~-|
6----------33333333---------------------------------|
            
Submit corrections


        Do This Anymore lessons Hard to play? Try these video lessons and learn fast Do This Anymore lessons
        
↑ Back to top | Tablatures and chords for acoustic guitar and electric guitar, ukulele, drums are parodies/interpretations of the original songs. You may use it for private study, scholarship, research or language learning purposes only