» » »

Nickelback - Do This Anymore Tabs

Artists:  A B C D E F G H I J K L M N O P Q R S T U V W X Y Z # 

Do This Anymore Tabs

(ver. 2) Click to play this song!
Nickelback
 Rating:
4/5 (4 votes)

 Do This Anymore lessons Tabs too difficult? Try these video lessons and learn fast
 
                Tuning: Dropped D

Verse, Pre Verse:

e-------------------------------------------x
b-------------------------------------------x
g-------------------3-----------------------x
d-3-----6-----1-----3-----3-----6-----1-----x
a-3-----6-----1-----3-----3-----6-----1-----x
D-3-----6-----1-----------3-----6-----1-----x
(Played with distortion for ringing sound)

Fill:

e------------------------------
b------------------------------
g------------------------------
d-3xxxxxxxxxxxxxxx333----------
a-3xxxxxxxxxxxxxxx333----------
D-3xxxxxxxxxxxxxxx333----------

Pre Chorus:
 
e------------------------
b------------------------
g-55-------3-------------	Play twice
d-55---11--3--33-66------
a-33---11--3--33-66------
D------11-----33-66------
	
Chorus:

e--------------------------------------
b--------------------------------------
g-5-5xx-xx--------3--------------------
d-5-5xx-xx-1xx-xx-3-------33-66--------
a-3-3xx-xx-1xx-xx-3-------33-66--------
D----------1xx-xx---------33-66--------
Post Chorus 

e----------------------------
b----------------------------
g-5-----------3--------------
d-5-----1-----3-----33-66----
a-3-----1-----3-----33-66----
D-------1-----------33-66----
            
Submit corrections


        Do This Anymore lessons Hard to play? Try these video lessons and learn fast Do This Anymore lessons
        
↑ Back to top | Tablatures and chords for acoustic guitar and electric guitar, ukulele, drums are parodies/interpretations of the original songs. You may use it for private study, scholarship, research or language learning purposes only