» » »

New Found Glory - Forget My Name Tabs

Artists:  A B C D E F G H I J K L M N O P Q R S T U V W X Y Z # 

Forget My Name Tabs

(ver. 2) Click to play this song!
New Found Glory
 Rating:
4/5 (4 votes)

 Forget My Name lessons Tabs too difficult? Try these video lessons and learn fast
 
                no one has any good stuff off the new cd so i decided to put some on...more to come soon!

Intro:
-|-------------------------|-
-|-------------------------|-
-|-4-4-xxx-----------------|-
-|-4-2-xxx-4-4-6-6-xxx-2-2-|-
-|-2-2-xxx-4-4-6-6-xxx-2-2-|-
-|---------2-2-4-4-xxx-0-0-|-
                                     
Hits:
-|----------|-
-|----------|-
-|-44-------|-
-|-44-44-22-|-
-|-22-44-22-|-
-|----22-00-|-

Verse:
-|-----------------------------------------------------------------|-
-|-----------------------------------------------------------------|-
-|-4-4-4-4-4-4-4-4-------------------------------------------------|-
-|-4-4-4-4-4-4-4-4-2-2-2-2-2-2-2-2-6-6-6-6-6-6-6-6-4-4-4-4-4-4-4-4-|-
-|-2-2-2-2-2-2-2-2-2-2-2-2-2-2-2-2-6-6-6-6-6-6-6-6-4-4-4-4-4-4-4-4-|-
-|-----------------0-0-0-0-0-0-0-0-4-4-4-4-4-4-4-4-2-2-2-2-2-2-2-2-|-                                                                    

Pre-Chorus:
-|-------------------------------------------------------------------|-
-|-------------------------------------------------------------------|-
-|-------------------------------------------------------------------|-
-|-6-66666-2-22222-6-66666-4-44444-6-66666-2-22222-66666666-44444444-|-
-|-6-66666-2-22222-6-66666-4-44444-6-66666-2-22222-66666666-44444444-|-
-|-4-44444-0-00000-4-44444-2-44444-4-44444-0-00000-44444444-22222222-|-                                                                  

Chorus:
-|--------------------------|-
-|--------------------------|-
-|-4-4-xxx------------------|-
-|-4-4-xxx-4-4-6-6--2-2-2-2-|-
-|-2-2-xxx-4-4-6-6--2-2-2-2-|-
-|---------2-2-4-4--0-0-0-0-|-
                                                                    
Bridge:
|-----------------------------------------------|-
|-----------------------------------------------|-
|-4-4-------------4-4---------------------------|-
|-4-4-2-2-6-6-2-2-4-4-2-2-6-6-2-2-4-4-4444444444|-
|-2-2-2-2-6-6-2-2-2-2-2-2-6-6-2-2-4-4-4444444444|-
|-----0-0-4-4-0-0-----0-0-4-4-0-0-2-2-2222222222|-

Outro:
-|-------------------|-
-|-4-5-4-2-4-2-0-2-0-|-
-|-------------------|-
-|-------------------|-
-|-------------------|-
-|-------------------|-

Order:
Intro      (4x)
Hits       (1x)
Verse      (2x)
Pre-Chorus (1x)
Chorus     (4x)
Hits       (1x)
Vers       (2x)
Pre-Chorus (1x)
Chorus     (4x)
Hits       (1x)
Bridge     (1x)
Chorus     (4x)
Intro      (4x)
Outro      (4x)

lyrics:
tell all my friends I'm dead 
I'm leaving you, this time its for good 
tell all my friends that I'm dead 
it won't be long before you forget my name 

can you tell 
that I'm losing myself 
I think I'm trying too hard to 
let it show 
to let you know 
to trace your footsteps back to me 

cus I've been gone for a long time 
waiting on the sidelines 
hoping for a chance to play 
well I thought I would never leave anything behind 
I also never thought I'd say 

tell all my friends I'm dead 
I'm leaving you, this time its for good 
tell all my friends that I'm dead 
it won't be long before you forget my name 

can you tell 
that I don't know myself 
I need someone to remind me 
to let it go 
please let me know 
to trace your footsteps back to me 

cus I've been gone for a long time 
waiting on the sidelines 
hoping for a chance to play 
well I thought I would never leave anything behind 
I also never thought I'd say 

tell all my friends I'm dead 
I'm leaving you, this time its for good 
tell all my friends that I'm dead 
it won't be long before you forget my name 

and if I had the chance 
to do it all again 
I wouldn't expect anything less 
and if I had the chance 
to do it all again 
I wouldn't expect 
I wouldn't expect anything less 

tell all my friends I'm dead 
I'm leaving you, this time its for good 
tell all my friends that I'm dead 
it won't be long before you forget my name 

forget my name
            
Submit corrections


        Forget My Name lessons Hard to play? Try these video lessons and learn fast Forget My Name lessons
        
↑ Back to top | Tablatures and chords for acoustic guitar and electric guitar, ukulele, drums are parodies/interpretations of the original songs. You may use it for private study, scholarship, research or language learning purposes only