» » »

New Found Glory - Forget My Name Tabs

Artists:  A B C D E F G H I J K L M N O P Q R S T U V W X Y Z # 

Forget My Name Tabs

(ver. 1) Click to play this song!
New Found Glory
 Rating:
4/5 (4 votes)

 Forget My Name lessons Tabs too difficult? Try these video lessons and learn fast
 
                Song - Forget My Name                         . = palm mute
Artists - New Found Glory                     * = let ring
Album - Sticks And Stones
Tuning - normal
Amp Setting - light distortion

This tab is 99.9% correct (it is really 100% CORRECT but that was just a figure of speech)

Chorus

e------------------------------------------------------            Song Structure
B------------------------------------------------------ 
G-4--4-4-4-4-4-----------------------------------------            Chorus x 4
D-4--4-4-4-4-4-44-6-2--2-2-2-2-2-----------------------            After Chorus X 1
A-2--2-2-2-2-2-44-6-2--2-2-2-2-2-----------------------      Verse x 2               
E--------------22-4-0--0-0-0-0-0-----------------------            Pre Chorus x 2
                                                                   Chorus x 4
After Chorus                                                       After Chorus x 1
                                                                   Verse x 2
e--------------                                                    Pre Chorus x 2
B--------------                                                    Chorus x 4
G--4-4--4-4--4-                                                    After Chorus x 1
D--4-4--4-4--4-                                                    Interlude x 2
A--2-2--2-2--2-                                                    Pre Chorus x 1
E--------------                                                    Chorus x 4
                                                                   After Chorus x 1
                                                                   Outro x 4
Verse                                                              End On E5!

e------------------------------------------------------------------
B------------------------------------------------------------------
G--4-4-4-4-4-4-4-4-------------------------------------------------
D--4-4-4-4-4-4-4-4-2-2-2-2-2-2-2-2-6-6-6-6-6-6-6-6-4-4-4-4-4-4-4-4-
A--2-2-2-2-2-2-2-2-2-2-2-2-2-2-2-2-6-6-6-6-6-6-6-6-4-4-4-4-4-4-4-4-
E------------------0-0-0-0-0-0-0-0-4-4-4-4-4-4-4-4-2-2-2-2-2-2-2-2-

Pre - Chorus

e---------------------------------------------------------
B---------------------------------------------------------
G--6--6-6-6-6-6--9--9-9-9-9-9-----------------------------
D--6--6-6-6-6-6--9--9-9-9-9-9--6--6-6-6-6-6--4--4-4-4-4-4-
A--4--4-4-4-4-4--7--7-7-7-7-7--6--6-6-6-6-6--4--4-4-4-4-4-
E------------------------------4--4-4-4-4-4--2--2-2-2-2-2-

Interlude

e---------------------------------------------------------
B---------------------------------------------------------
G--4*------4-4--4-4---------------------------------------
D--4*------4-4--4-4--2-2--2-2--6-6--6-6--2-2--4-4---------
A--2*------2-2--2-2--2-2--2-2--6-6--6-6--2-2--4-4---------
E--2*----------------0-0--0-0--4-4--4-4--0-0--2-2---------

Pre - Chorus 2

e-----------------------------------
B-----------------------------------
G-----------------------------------
D-4-4-4-4-4-4-4-4-4-4-4-4-4-4-4-4---
A-4-4-4-4-4-4-4-4-4-4-4-4-4-4-4-4---
E-2-2-2-2-2-2-2-2-2-2-2-2-2-2-2-2---
  . . . . . . . . . . . . . . . .

Outro

e-------------------
B-------------------
G--4-4-4-4----------
D--4-4-4-4-4-4-6-2*-
A--2-2-2-2-4-4-6-2*-
E----------2-2-4-0*-
            
Submit corrections


        Forget My Name lessons Hard to play? Try these video lessons and learn fast Forget My Name lessons
        
↑ Back to top | Tablatures and chords for acoustic guitar and electric guitar, ukulele, drums are parodies/interpretations of the original songs. You may use it for private study, scholarship, research or language learning purposes only