» » »

New Found Glory - Ex-miss Tabs

Artists:  A B C D E F G H I J K L M N O P Q R S T U V W X Y Z # 

Ex-miss Tabs

(ver. 2) Click to play this song!
New Found Glory
 Rating:
4/5 (4 votes)

 Ex-miss  lessons Tabs too difficult? Try these video lessons and learn fast
 
                (1)
Intro
E---------------
B---------------
G--12--7-9-7----
D--x---x-x-x----
A--10--5-7-5----
E---------------

Verse
E---------------
B---------------
G-----------5---
D---5-------5---
A---5-------3---
E---3-----------

Pre-Chorus
E------------------------------------------------
B------------------------------------------------
G--12-12-12-12--10-10-10-10--5-5-5-5-5-5-5-5-5---
D--12-12-12-12--10-10-10-10--5-5-5-5-5-5-5-5-5---
A--10-10-10-10--8--8--8--8---3-3-3-3-3-3-3-3-3---
E------------------------------------------------

Fill
E----------------
B----------------
G---5--4--5--7---
D---5--4--5--7---
A---3--2--3--5---
E----------------

Chorus
E---------------------------------------------------
B---------------------------------------------------
G---------------5-5-5-5-5---------------7-7-7-7-7---
D---5-5-5-5-5---5-5-5-5-5---2-2-2-2-2---7-7-7-7-7---
A---5-5-5-5-5---3-3-3-3-3---2-2-2-2-2---5-5-5-5-5---
E---3-3-3-3-3---------------0-0-0-0-0---------------

Intro
E----------------
B----------------
G---12---7-9-7---
D---x----x-x-x---
A---10---5-7-5---
E----------------

Verse
E----------------
B----------------
G-----------5----
D---5-------5----
A---5-------3----
E---3------------

Pre-Chorus
E---------------------------------------
B---------------------------------------
G---7-7-7-7-7---5-5-5-5-5---------------
D---7-7-7-7-7---5-5-5-5-5---5-5-5-5-5---
A---5-5-5-5-5---3-3-3-3-3---5-5-5-5-5---
E---------------------------3-3-3-3-3---

Fill
E----------------
B----------------
G---5--4--5--7---
D---5--4--5--7---
A---3--2--3--5---
E----------------

Chorus
E---------------------------------------------------
B---------------------------------------------------
G---------------5-5-5-5-5---------------7-7-7-7-7---
D---5-5-5-5-5---5-5-5-5-5---2-2-2-2-2---7-7-7-7-7---
A---5-5-5-5-5---3-3-3-3-3---2-2-2-2-2---5-5-5-5-5---
E---3-3-3-3-3---------------0-0-0-0-0---------------

Solo
E--------------------------------------------------------
B--------------------------------------------------------
G--------------------------------------------------------
D------9-7-5--------9-7-5-----9-7-5------12-12--10--7-9--
A---5---------5--5---------7---------7-------------------
E--------------------------------------------------------

Fill
E----------------
B----------------
G---5--4--5--7---
D---5--4--5--7---
A---3--2--3--5---
E----------------

Chorus
E---------------------------------------------------
B---------------------------------------------------
G---------------5-5-5-5-5---------------7-7-7-7-7---
D---5-5-5-5-5---5-5-5-5-5---2-2-2-2-2---7-7-7-7-7---
A---5-5-5-5-5---3-3-3-3-3---2-2-2-2-2---5-5-5-5-5---
E---3-3-3-3-3---------------0-0-0-0-0---------------

Thats it thanks for looking and send corrections if needed
            
Submit corrections


        Ex-miss  lessons Hard to play? Try these video lessons and learn fast Ex-miss  lessons
        
↑ Back to top | Tablatures and chords for acoustic guitar and electric guitar, ukulele, drums are parodies/interpretations of the original songs. You may use it for private study, scholarship, research or language learning purposes only