» » »

New Found Glory - Ex-Miss Tabs

Artists:  A B C D E F G H I J K L M N O P Q R S T U V W X Y Z # 

Ex-Miss Tabs

(ver. 1) Click to play this song!
New Found Glory
 Rating:
4/5 (4 votes)

 Ex-Miss lessons Tabs too difficult? Try these video lessons and learn fast
 
                A New Found Glory - "Ex Miss"

Intro
e|---------------------------------------------------------------------------|
B|---------------------------------------------------------------------------|
G|---------------------------------------------------------------------------|
D|-----------------5---2-2-2---7--7--7---------------------------------------|
A|--5--5--5--5-----3---2-2-2---5--5--5--5--5--5--5--5--5--5------------------|
E|--3--3--3--3---------0-0-0------------3--3--3--3--3--3--3-------------------|

Verse
e|---------------------------------------------------------------------------|
B|---------------------------------------------------------------------------|
G|---------------------------------------------------------------------------|
D|-------5--------5--------5--------5----------------------------------------|
A|--5----3----5---3----5---3----5---3-----------------------------------------|
E|--3---------3--------3--------3----------------------------------------------|

Pre Chorus
e|---------------------------------------------------------------------------|
B|---------------------------------------------------------------------------|
G|---------------------------------------------------------------------------|
D|--9--9--9--9----7--7--7--7----5--5--5--5----7--7--7--7---------------------|
A|--7--7--7--7----5--5--5--5----3--3--3--3----5--5--5--5----------------------|
E|---------------------------------------------------------------------------|

Pre Chorus part II
e|---------------------------------------------------------------------------|
B|---------------------------------------------------------------------------|
G|---------------------------------------------------------------------------|
D|--9--9--9--9----7--7--7--7----5-/-4--5--7----------------------------------|
A|--7--7--7--7----5--5--5--5----3-/-2--3--5-----------------------------------|
E|---------------------------------------------------------------------------|

Chorus
e|---------------------------------------------------------------------------|
B|---------------------------------------------------------------------------|
G|---------------------------------------------------------------------------|
D|-----------------5--5--5--5---2-2-2----7--7--7------------------------------|
A|--5--5--5--5-----3--3--3--3---2-2-2----5--5--5-------------------------------|
E|--3--3--3--3------------------0-0-0-----------------------------------------|

Chorus part II
e|---------------------------------------------------------------------------|
B|---------------------------------------------------------------------------|
G|---------------------------------------------------------------------------|
D|---------------5--5--5--5---2-2-2---7--7--7--7-------------------7--7--7--7-|
A|--5--5--5--5---3--3--3--3---2-2-2---5--5--5--5---10--10--10--10--5--5--5--5--|
E|--3--3--3--3----------------0-0-0----------------8---8---8---8---------------|

Chad's Solo
e|---------------------------------------------------------------------------|
B|---------------------------------------------------------------------------|
G|---------------------------------------------------------------------------|
D|-0-0-0-9-/-7/-5-0--0-0-0-9-/-7/-5--2----2-2-2---9/-7/-5/-14--12-12-10-7-9--|
A|---------------------------------------------------------------------------|
E|---------------------------------------------------------------------------|

Steve's Rythym During Solo
e|---------------------------------------------------------------------------|
B|---------------------------------------------------------------------------|
G|---------------------------------------------------------------------------|
D|-----------------5--5--5--5---2-2-2----7--7--7------------------------------|
A|--5--5--5--5-----3--3--3--3---2-2-2----5--5--5-------------------------------|
E|--3--3--3--3------------------0-0-0-----------------------------------------|

Outro Post Solo Thing
e|---------------------------------------------------------------------------|
B|---------------------------------------------------------------------------|
G|--5---4---5---7------------------------------------------------------------|
D|--x---x---x---x------------------------------------------------------------|
A|--3---2---3---5-------------------------------------------------------------|
E|---------------------------------------------------------------------------|

Outro
e|---------------------------------------------------------------------------|
B|---------------------------------------------------------------------------|
G|---------------------------------------------------------------------------|
D|--5--5--5--5------5-/-4--5--7----------------------------------------------|
A|--3--3--3--3------3-/-2--3--5-----------------------------------------------|
E|---------------------------------------------------------------------------|
            
Submit corrections


        Ex-Miss lessons Hard to play? Try these video lessons and learn fast Ex-Miss lessons
        
↑ Back to top | Tablatures and chords for acoustic guitar and electric guitar, ukulele, drums are parodies/interpretations of the original songs. You may use it for private study, scholarship, research or language learning purposes only