» » »

New Found Glory - Better Of Dead Tabs

Artists:  A B C D E F G H I J K L M N O P Q R S T U V W X Y Z # 

Better Of Dead Tabs

(ver. 3) Click to play this song!
New Found Glory
 Rating:
4/5 (9 votes)

 Better Of Dead lessons Tabs too difficult? Try these video lessons and learn fast
 
                
Album:New Found Glory
Track:Better Off Dead


the song uses 2 guitars, but ive tabbed only one of them.

Verse:

e-|---------------------------------------------------------------------------|- x4
B-|---------------------------------------------------------------------------|-
G-|-4-4--4--------------------------------------------------------------------|-
D-|-4-4--4-/-4-4--4-/-2-2--2-/-6-6--6-/-4-4--4-/------------------------------|-
A-|-2-2--2-/-4-2--4-/-2-2--2-/-6-6--6-/-4-4--4-/------------------------------|-
E-|--------/-2-2--2-/-0-0--0-/-4-4--4-/-2-2--2-/------------------------------|-

Verse 2:                                            Verse 3:

e-|--------------------------------------|-x3 then e|-------------------------|- x1
B-|--------------------------------------|-   play B|-------------------------|-
G-|-----/-4-4-4------4-/-6-/-4-/-6-------|-        G|-----/-4-4-4-------------|-
D-|-2-2-/-4-4-4-/-2--4-/-6-/-4-/-6-------|-        D|-2-2-/-4-4-4-/-6-6-6-/-4-|-
A-|-2-2-/-2-2-2-/-2--2-/-4-/-2-/-4-------|-        A|-2-2-/-2-2-2-/-6-6-6-/-4-|-
E-|-0-0---------/-0----------------------|-        E|-0-0---------/-4-4-4-/-2-|-

Play Verse again x4

Play Verse2 again x3 then play Verse3 x1

Chorus:
e-|---------------------------------------------------------------------------|- x2 
B-|---------------------------------------------------------------------------|-
G-|-4-x12-/-8-8-8-8-/-6-6-6-6-/-4-4-4-4-/-8-x4-/-6-x4-/-4-4--4-x4--4-x4--4-4--|-
D-|-4-----/-8-8-8-8-/-6-6-6-6-/-4-4-4-4-/-8----/-6----/-4-4--4-----4-----4-4--|-
A-|-2-----/-6-6-6-6-/-4-4-4-4-/-2-2-2-2-/-6----/-4----/-2-2--2-----2-----2-2--|-
E-|---------------------------------------------------------------------------|-

e-|------------------------------------------------------------------------------------|- x2 
B-|------------------------------------------------------------------------------------|-
G-|-4-x12-/-8-8-8-8-/-6-6-6-6-/-4-4-4-4-/-8-x4-/-6-x4-/-4-4--4-4-/-2-2--4-4-/-4-4--4-4-|-
D-|-4-----/-8-8-8-8-/-6-6-6-6-/-4-4-4-4-/-8----/-6----/-4-4--4-4-/-2-2--4-4-/-4-4--4-4-|-
A-|-2-----/-6-6-6-6-/-4-4-4-4-/-2-2-2-2-/-6----/-4----/-2-2--6-6-/-4-4--6-6-/-2-2--2-2-|-
E-|------------------------------------------------------------------------------------|-

Bridge:
e-|---------------------------------------------|- x7
B-|---------------------------------------------|-
G-|--4-4----------------------------------------|-
D-|--4-4-/-6-/-4-4-/-6--------------------------|-
A-|--2-2-/-6-/-4-4-/-6--------------------------|-
E-|------/-4-/-2-2-/-4--------------------------|-

Play Verse2 again x3 then play Verse3 x1

Play Chorus x3 then play Bridge x3

                 !=LEARN TO PLAY IT AND ENJOY=!
            
Submit corrections


        Better Of Dead lessons Hard to play? Try these video lessons and learn fast Better Of Dead lessons
        
↑ Back to top | Tablatures and chords for acoustic guitar and electric guitar, ukulele, drums are parodies/interpretations of the original songs. You may use it for private study, scholarship, research or language learning purposes only