» » »

New Found Glory - Better Of Dead Tabs

Artists:  A B C D E F G H I J K L M N O P Q R S T U V W X Y Z # 

Better Of Dead Tabs

(ver. 1) Click to play this song!
New Found Glory
 Rating:
4/5 (23 votes)

 Better Of Dead lessons Tabs too difficult? Try these video lessons and learn fast
 
                                             Better Off Dead

Intro/Verse x 4
e|---------------------------------------------------------------------------|
B|---------------------------------------------------------------------------|
G|-4-4-----------------------------------------------------------------------|
D|-4-4----4-4----2-2----6-6-4-4----------------------------------------------|
A|-2-2----4-4----2-2----6-6-4-4----------------------------------------------|
E|--------2-2----0-0----4-4-2-2----------------------------------------------|

Pre Chorus x 4
e|---------------------------------------------------------------------------|
B|---------------------------------------------------------------------------|
G|---------------------------------------------------------------------------|
D|-2-2-2-2--6-6--4-4---------------------------------------------------------|
A|-2-2-2-2--6-6--4-4---------------------------------------------------------|
E|-0-0-0-0--4-4--2-2---------------------------------------------------------|

Verse x 4

Pre Chorus x 4

Chorus x 4
e|---------------------------------------------------------------------------|
B|---------------------------------------------------------------------------|
G|-4-4-4-4-4-4------------------------------------4-4--4-4-4--4-4-4--4-4-4---|
D|-4-4-4-4-4-4--6-6-6-4-4-4-2-2-2-2--6-6-6-4-4-4-----------------------------|
A|-2-2-2-2-2-2--6-6-6-4-4-4-2-2-2-2--6-6-6-4-4-4--2-2--2-2-2--2-2-2--2-2-2---|
E|--------------4-4-4-2-2-2-0-0-0-0--4-4-4-2-2-2-----------------------------|

Post Chorus
e|---------------------------------------------------------------------------|
B|---------------------------------------------------------------------------|
G|-4-4-----------------------------------------------------------------------|
D|-4-4--x-6-x-4-4-x-6-x------------------------------------------------------|
A|-2-2--x-6-x-4-4-x-6-x------------------------------------------------------|
E|------x-4-x-2-2-x-4-x------------------------------------------------------|

Pre Chorus x 4

Chorus x 4

Post Chorus x 4
            
Submit corrections


        Better Of Dead lessons Hard to play? Try these video lessons and learn fast Better Of Dead lessons
        
↑ Back to top | Tablatures and chords for acoustic guitar and electric guitar, ukulele, drums are parodies/interpretations of the original songs. You may use it for private study, scholarship, research or language learning purposes only