» » »

Motionless In White - Contemptress Tabs

Artists:  A B C D E F G H I J K L M N O P Q R S T U V W X Y Z # 

Contemptress Tabs

(ver. 2) Click to play this song!
Motionless In White
 Rating:
4.8/5 (20 votes)

 Contemptress  lessons Tabs too difficult? Try these video lessons and learn fast
 
                Tuning: Drop A

Its been a while but i seem to be the only one tabbing this song. Okay

Intro intro (optional)
B-|-----------------------------------------------------------------|
F#|-----------------------------------------------------------------|
D-|-----------------------------------------------------------------|
A-|-7-7-7-7-7-7-7-7-7-7-7-7-7-7-7-7-7-7-7-7-5-5-5-5-3-3-3-3-2-2-2-2-|
E-|-----------------------------------------------------------------|
A-|-----------------------------------------------------------------|
    . . . . . . . . . . . . . . . . . . . . . . . . . . . . . . . . 

Intro
B-|--------------------------------------------------------------------|
F#|---------------------------------------------------------10-10-10-10|
D-|---------------------------------------------------------10-10-10-10|
A-|---------------------------------------------------------8--8--8--8-|
E-|-5~--------5-----5~------7h8-8-8-5~--------5-----5~------8--8--8--8-|
A-|-----0---------0-----0---------------0---------0-----0---8--8--8--8-|

B-|------------------------------------------------------------------|
F#|------------------------------------------------------------------|
D-|------------------------------------------------------------------|
A-|-------------------------------------------------------8-8-7-7-7-7|
E-|-5~--------5-----5~------7h8-8-8-----12-----12--------------------|
A-|-----0---------0-----0-----------8-8----8-8----8-8-5-5------------|

Verse (also optional but untabbed as of now)

Prechorus
B-|-----------------------------------------------------------------|
F#|-----------------------------------------------------------------|
D-|-----------------------------------------------------------------|
A-|-8-8-8-8-8-8-8-8-8-8-8-8-8-3-3-3-5-5-5-5-5-5-5-5-5-5-5-5-5-5-5-5-|
E-|-8-8-8-8-8-8-8-8-8-8-8-8-8-3-3-3-5-5-5-5-5-5-5-5-5-5-5-5-5-5-5-5-|
A-|-8-8-8-8-8-8-8-8-8-8-8-8-8-3-3-3-5-5-5-5-5-5-5-5-5-5-5-5-5-5-5-5-|

B-|-----------------------------------------------------------------|
F#|-----------------------------------------------------------------|
D-|-----------------------------------------------------------------|
A-|-8-8-8-8-8-8-8-8-8-8-8-8-8-3-3-3-5-5-5-5-5-5-5-5-5---------------|
E-|-8-8-8-8-8-8-8-8-8-8-8-8-8-3-3-3-5-5-5-5-5-5-5-5-5---------------|
A-|-8-8-8-8-8-8-8-8-8-8-8-8-8-3-3-3-5-5-5-5-5-5-5-5-5---------------|

Chorus x2
B-|-----------------------------------------8--8--8--8----------5-5-5-5-|
F#|-----------------------------------------10-10-10-10---------6-6-6-6-|
D-|-----------------------------------------10-10-10-10---------7-7-7-7-|
A-|---------------------------------8-8-8-8-8--8--8--8--5-5-5-5-5-5-5-5-|
E-|-5~--------5-----5~------7h8-8-8-8-8-8-8-8--8--8--8--5-5-5-5-5-5-5-5-|
A-|-----0---------0-----0-----------8-8-8-8-8--8--8--8--5-5-5-5-5-5-5-5-|

B-|------------------------------------------------------------------------|
F#|------------------------------------------------------------------------|
D-|------------------------------------------------------------------------|
A-|---------------------------------8-8-8-8-8-8-8-8-10-10-10-10-10-10-10-10|
E-|-5~--------5-----5~------7h8-8-8-8-8-8-8-8-8-8-8-10-10-10-10-10-10-10-10|
A-|-----0---------0-----0-----------8-8-8-8-8-8-8-8-10-10-10-10-10-10-10-10| 

Verse (also optional but untabbed as of now)

Prechorus
B-|-----------------------------------------------------------------|
F#|-----------------------------------------------------------------|
D-|-----------------------------------------------------------------|
A-|-8-8-8-8-8-8-8-8-8-8-8-8-8-3-3-3-5-5-5-5-5-5-5-5-5-5-5-5-5-5-5-5-|
E-|-8-8-8-8-8-8-8-8-8-8-8-8-8-3-3-3-5-5-5-5-5-5-5-5-5-5-5-5-5-5-5-5-|
A-|-8-8-8-8-8-8-8-8-8-8-8-8-8-3-3-3-5-5-5-5-5-5-5-5-5-5-5-5-5-5-5-5-|

B-|-----------------------------------------------------------------|
F#|-----------------------------------------------------------------|
D-|-----------------------------------------------------------------|
A-|-8-8-8-8-8-8-8-8-8-8-8-8-8-3-3-3-5-5-5-5-5-5-5-5-5---------------|
E-|-8-8-8-8-8-8-8-8-8-8-8-8-8-3-3-3-5-5-5-5-5-5-5-5-5---------------|
A-|-8-8-8-8-8-8-8-8-8-8-8-8-8-3-3-3-5-5-5-5-5-5-5-5-5---------------|

Chorus x2
B-|-----------------------------------------8--8--8--8----------5-5-5-5-|
F#|-----------------------------------------10-10-10-10---------6-6-6-6-|
D-|-----------------------------------------10-10-10-10---------7-7-7-7-|
A-|---------------------------------8-8-8-8-8--8--8--8--5-5-5-5-5-5-5-5-|
E-|-5~--------5-----5~------7h8-8-8-8-8-8-8-8--8--8--8--5-5-5-5-5-5-5-5-|
A-|-----0---------0-----0-----------8-8-8-8-8--8--8--8--5-5-5-5-5-5-5-5-|

B-|------------------------------------------------------------------------|
F#|------------------------------------------------------------------------|
D-|------------------------------------------------------------------------|
A-|---------------------------------8-8-8-8-8-8-8-8-10-10-10-10-10-10-10-10|
E-|-5~--------5-----5~------7h8-8-8-8-8-8-8-8-8-8-8-10-10-10-10-10-10-10-10|
A-|-----0---------0-----0-----------8-8-8-8-8-8-8-8-10-10-10-10-10-10-10-10| 

Breakdown thingy (untabbed as of now)

Bridge 
B-|-----------------------------------------------------------------|
F#|-----------------------------------------------------------------|
D-|-----------------------------------------------------------------|
A-|-8-8-8-8-8-8-8-8-8-8-8-8-8-8-8-8-5-5-5-5-5-5-5-5-5-5-5-5-5-5-5-5-|
E-|-8-8-8-8-8-8-8-8-8-8-8-8-8-8-8-8-5-5-5-5-5-5-5-5-5-5-5-5-5-5-5-5-|
A-|-8-8-8-8-8-8-8-8-8-8-8-8-8-8-8-8-5-5-5-5-5-5-5-5-5-5-5-5-5-5-5-5-|

B-|-----------------------------------------------------------------|
F#|-----------------------------------------------------------------|
D-|-----------------------------------------------------------------|
A-|-0-0-0-0-0-0-0-0-0-0-0-0-0-0-0-0-3-3-3-3-3-3-3-3-3-3-3-3-3-3-3-3-|
E-|-0-0-0-0-0-0-0-0-0-0-0-0-0-0-0-0-3-3-3-3-3-3-3-3-3-3-3-3-3-3-3-3-|
A-|-0-0-0-0-0-0-0-0-0-0-0-0-0-0-0-0-3-3-3-3-3-3-3-3-3-3-3-3-3-3-3-3-|

B-|-----------------------------------------------------------------|
F#|-----------------------------------------------------------------|
D-|-----------------------------------------------------------------|
A-|-8-8-8-8-8-8-8-8-8-8-8-8-8-8-8-8-5-5-5-5-5-5-5-5-5-5-5-5-5-5-5-5-|
E-|-8-8-8-8-8-8-8-8-8-8-8-8-8-8-8-8-5-5-5-5-5-5-5-5-5-5-5-5-5-5-5-5-|
A-|-8-8-8-8-8-8-8-8-8-8-8-8-8-8-8-8-5-5-5-5-5-5-5-5-5-5-5-5-5-5-5-5-|

Prechorus riff (untabbed as of now)

Chorus x2
B-|-----------------------------------------8--8--8--8----------5-5-5-5-|
F#|-----------------------------------------10-10-10-10---------6-6-6-6-|
D-|-----------------------------------------10-10-10-10---------7-7-7-7-|
A-|---------------------------------8-8-8-8-8--8--8--8--5-5-5-5-5-5-5-5-|
E-|-5~--------5-----5~------7h8-8-8-8-8-8-8-8--8--8--8--5-5-5-5-5-5-5-5-|
A-|-----0---------0-----0-----------8-8-8-8-8--8--8--8--5-5-5-5-5-5-5-5-|

B-|------------------------------------------------------------------------|
F#|------------------------------------------------------------------------|
D-|------------------------------------------------------------------------|
A-|---------------------------------8-8-8-8-8-8-8-8-10-10-10-10-10-10-10-10|
E-|-5~--------5-----5~------7h8-8-8-8-8-8-8-8-8-8-8-10-10-10-10-10-10-10-10|
A-|-----0---------0-----0-----------8-8-8-8-8-8-8-8-10-10-10-10-10-10-10-10| 

B-|---|
F#|---|
D-|---|
A-|-0-|
E-|-0-|
A-|-0-|            
Submit corrections


        Contemptress  lessons Hard to play? Try these video lessons and learn fast Contemptress  lessons
        
↑ Back to top | Tablatures and chords for acoustic guitar and electric guitar, ukulele, drums are parodies/interpretations of the original songs. You may use it for private study, scholarship, research or language learning purposes only