Home » M » Motionless In White »

Motionless In White - Contemptress Tabs

Artists:  A B C D E F G H I J K L M N O P Q R S T U V W X Y Z # 

Contemptress Tabs

(ver. 1) Click to play this song!
Motionless In White
intro tab

surprised asf that nobody has tabbed this song yet. song is perf. especially his voice o.o

tuning: drop A (i think)

B-|------------------------------------------------------------------|
F#|---------------------------------------------------------10101010-|
D-|---------------------------------------------------------10101010-|
A-|---------------------------------------------------------8-8-8-8--|
E-|-5~--------5-----5~------7h8-8-8-5~--------5-----5~------8-8-8-8--|
A-|-----0---------0-----0---------------0---------0-----0---8-8-8-8--|

B-|--------------------------------------------------------------------|
F#|--------------------------------------------------------------------|
D-|--------------------------------------------------------------------|
A-|-------------------------------------------------------8-8-7-7-7-7--|
E-|-5~--------5-----5~------7h8-8-8-----12-----12----------------------|
A-|-----0---------0-----0-----------8-8----8-8----8-8-5-5--------------|
                                                 
Submit corrections

↑ Back to top | Tablatures and chords for acoustic guitar and electric guitar, ukulele, drums are parodies/interpretations of the original songs. You may use it for private study, scholarship, research or language learning purposes only