Home » M » Mayday Parade »

Mayday Parade - One Man Drinking Games Tabs

Artists:  A B C D E F G H I J K L M N O P Q R S T U V W X Y Z # 

One Man Drinking Games Tabs

(ver. 2) Click to play this song!
Mayday Parade
                Mayday Parade
One Man Drinking Games

Standard Tuning

I've been looking for this tab for some time now and with no success I tabbed it out 
 This is my first posted tab but i know it is 100% correct.  I will try to work on the 
of the song eventually.  Enjoy.

e|----------------5-------------------------|
B|----------3---------3-----------------3---|
G|-------0-----0----------0--------0--------|
D|------------------------------------------|
A|------------------------------------------|
E|----3-------------------------------------|

|----------------3-----------2-2-2--xx--0-0-|
|----------3--------3--------3-3-3--xx--3-3-|
|-------0-----0--------0-----0-0-0--xx--0-0-|
|-------------------------------------------|
|-------------------------------------------|
|----3--------------------------------------|

|-------------0-----------------------------|
|---------3------3----------3---------------|
|-------0---0------0----0-------------------|
|-------------------------------------------|
|----3--------------------------------------|
|-------------------------------------------|

|--------------3--2-------------------------|
|---------3----------3----------------------|
|-------0---0-----------0-------------------|
|-------------------------------------------|
|----3--------------------------------------|
|-------------------------------------------|

|---------------0---------------------------|
|---------3--------3----------3-------------|
|------0-----0-------0-----0----------------|
|-------------------------------------------|
|-------------------------------------------|
|---0---------------------------------------|

|---------------2---------------------------|
|---------3---------3---------3-------------|
|------0-----0---------0---0----------------|
|-------------------------------------------|
|-------------------------------------------|
|---0---------------------------------------|

|---------------3---------------------------|
|----------3-------3----------3-------------|
|-------0----0--------0----0----------------|
|-------------------------------------------|
|---3---------------------------------------|
|-------------------------------------------|

|----------------3-3--x-x--5-5--------------|
|----------3-----3-3--x-x--3-3--------------|
|------0------0--0-0--x-x--0-0--------------|
|----------------2-2--x-x-------------------|
|---3------------3-3--x-x-------------------|
|-------------------------------------------|

Prechorus

|--3--------------------------------------|
|--3---------------3----3----3---3--------|
|--0-------------0---0----0----0----------|
|--0--------------------------------------|
|--x--------------------------------------|
|--3--------------------------------------|
"Keep breathing..."

|--3--------------------------------------|
|--3---------------3---3---3---3----------|
|--0-------------0---0---0---0------------|
|--2--------------------------------------|
|--2--------------------------------------|
|--0--------------------------------------|
"Keep breathing, just keep breathing.."
            
Submit corrections

↑ Back to top | Tablatures and chords for acoustic guitar and electric guitar, ukulele, drums are parodies/interpretations of the original songs. You may use it for private study, scholarship, research or language learning purposes only