Home » M » Mayday Parade »

Mayday Parade - One Man Drinking Games Bass

Artists:  A B C D E F G H I J K L M N O P Q R S T U V W X Y Z # 

One Man Drinking Games Bass

(ver. 1) Click to play this song!
Mayday Parade
 Rating:
4/5 (4 votes)
                Tuning: Standard

Intro (no bass)

Verse I (come in at 0:50)
G|---------------------------------------------------------------------------------|
D|-------------------------------------------------------2~----------2-2-----------|
A|----------------------------3~-----------3-3-------------------------------------|
E|-3~-----------3-3----------------------------------------------------------------|

G|-------------------------------------------------|
D|-------------------------------------------------|
A|-3~-----------3-3----3-3-3-3-3-3-3-3-3-3-3-3-3-3-|
E|-------------------------------------------------|

Chorus
G|------------------------------------------------------------------------|
D|------------------------------------------------------------------------|
A|-3~-----------3-3-------------------------------------------------------|
E|----------------------------0~-----------0-0------0-0--0--0-0--0----0-0-|

G|---------------------------------------------------------|
D|---------------------------------------------------------|
A|-3~-----------3-3----------------------------------------|
E|----------------------------0~-----------0-0-------------|
      
Post-Chorus (the slide is very quiet)
G|--------------------------|
D|--------------------------|
A|-3~----------------/10----|
E|--------------------------|

Verse II
G|--------------------------------------------------------------------------------------------|
D|--------------------------------------------------------------------------------------------|
A|------------------------------3~------------3-3--------3-5----------------------------------|
E|-3~------------3-3--------------------------------------------0~------------0-0-------------|

G|------------------------------|
D|------------------------------|
A|-3~------------3-3------------|
E|------------------------------|

G|---------------------------------------------------------------------------------------------------|
D|---------------------------------------------------------------------------------------------------|
A|-----------------------------------3~------------3-3------3----3-5---------------------------------|
E|-3~------------3-3--------3--3--3-------------------------------------0~------------0-0------------|
                           (triplet)


G|-------------------------------------------|
D|-------------------------------------------|
A|-3~------------3-3--3-3--3-3--3-3--3-3--3--|
E|-------------------------------------------|

Chorus II
G|------------------------------------------------------------------------|
D|------------------------------------------------------------------------|
A|-3~-----------3-3-------------------------------------------------------|
E|----------------------------0~-----------0-0------0-0--0--0-0--0----0-0-|

G|-------------------------------------------------------------------------|
D|-------------------------------------------------------------------------|
A|-3~-----------3-3--------------------------------------------------------|
E|----------------------------0~-----------0-0-0-0-0-0-0-0-0-0-0-0-0-0-0-0-|
      
Bridge
G|-------------------------------------------------------------------------------------------------|
D|-------------------------------------------------------------------------------------------------|
A|-3--3--3--3--3--3--3--3--3--3--3--3--3--3--3--3--------------------------------------------------| x 3
E|-------------------------------------------------0--0--0--0--0--0--0--0--0--0--0--0--0--0--0--0--|

G|---------------------------------------------------------------------------------------------------------|
D|---------------------------------------------------------------------------------------------------------|
A|-3--3--3--3--3--3--3--3--3--3--3--3--3--3--3--3----------------------------------------------------------| 
E|-------------------------------------------------0--0--0--0--0--0--0--0--0-0-0-0-0-0-0-0-0-0-0-0-0-0-0-0-|

Outro
G|-----------------------------------------------------------------|
D|-----------------------------------------------------------------|
A|-3-3-3-3-3-3-3-3-3-3-3-3-3-3-3-3-3-3-3-3-3-3-3-3-3-3-3-3-3-3-3-3-|
E|-----------------------------------------------------------------|

G|-----------------------------------------------------------------|
D|-----------------------------------------------------------------|
A|-----------------------------------------------------------------|
E|-0-0-0-0-0-0-0-0-0-0-0-0-0-0-0-0-0-0-0-0-0-0-0-0-0-0-0-0-0-0-0-0-|

G|-----------------------------------------------------------------|
D|-----------------------------------------------------------------|
A|-3-3-3-3-3-3-3-3-3-3-3-3-3-3-3-3-3-3-3-3-3-3-3-3-3-3-3-3-3-3-3-3-|
E|-----------------------------------------------------------------|

G|-------------------------------------------------------|
D|-------------------------------------------------------|
A|-------------------------------------------------------|
E|-0-0-0-0-0-0-0-0-0-0-0-0-0-0-0-0-0----0----0-----------|            
Submit corrections

↑ Back to top | Tablatures and chords for acoustic guitar and electric guitar, ukulele, drums are parodies/interpretations of the original songs. You may use it for private study, scholarship, research or language learning purposes only