» » »

Mayday Parade - Last Something That Meant Anything Tabs

Artists:  A B C D E F G H I J K L M N O P Q R S T U V W X Y Z # 

Last Something That Meant Anything Tabs

(ver. 3) Click to play this song!
Mayday Parade
 Rating:
4/5 (4 votes)

 Last Something That Meant Anything lessons Tabs too difficult? Try these video lessons and learn fast
 
                
Into/ Verse:

e|--------------------------------------------|
B|--------------------------------------------|
G|--------------------------------------------|
D|-12----12----10----10----9----9----7-5-4-0--|
A|----10----10----10----10---10---10----------|
E|--------------------------------------------|

e|--------------------------------------|
B|--------------------------------------|
G|-------------------------0-4----------|
D|-----5--------5------0h4-----7-5-4-0--|
A|-7-5---5--7-5---5--5------------------|
E|--------------------------------------|

Chorus will be completed very soon.
Let me know what you think.
[[:

- Gabe
            
Submit corrections


        Last Something That Meant Anything lessons Hard to play? Try these video lessons and learn fast Last Something That Meant Anything lessons
        
↑ Back to top | Tablatures and chords for acoustic guitar and electric guitar, ukulele, drums are parodies/interpretations of the original songs. You may use it for private study, scholarship, research or language learning purposes only