» » »

Mayday Parade - Last Something That Meant Anything Tabs

Artists:  A B C D E F G H I J K L M N O P Q R S T U V W X Y Z # 

Last Something That Meant Anything Tabs

(ver. 2) Click to play this song!
Mayday Parade
 Rating:
4/5 (4 votes)

 Last Something That Meant Anything lessons Tabs too difficult? Try these video lessons and learn fast
 
                Last Some Thing That Meant Anything Tab by Mayday Parade :
v=upsroke
h=hammer on

intro/verse

e-----------------------------------------------------|
B-----------------------------------------------------|
G--7-----7-----5-----5-----4-----4--------------------|
D--5--5--5--5--5--5--5--5--5--5--5--5--7-5-4-0--------|
A-----------------------------------------------------|
E-----------------------------------------------------| 
   v     v     v     v     v     v

e----------------------------------------|
B----------------------------0-----------|
G-------0-------0----------0---0---------|
D----00---0---0---0----0h4-------4-------|REPEAT X 3
A--7--------7--------5-------------5-----|
E----------------------------------------|
well i thought that we...

e--3---5---0---0----|
B--3---5---0---0----|
G--5---7---x---4----|
D--5---7---2---5----|x 1
A--3---5---2---5----|
E----------0---3----|

you know my heart...

e-----------------------------------------------------|
B-----------------------------------------------------|
G--7-----7-----5-----5-----4-----4--------------------|
D--5--5--5--5--5--5--5--5--5--5--5--5--7-5-4-0--------|
A-----------------------------------------------------|
E-----------------------------------------------------| 
   v     v     v     v     v     v
and ill borrow words....
verse

e----------------------------------------|
B----------------------------0-----------|
G-------0-------0----------0---0---------|
D----00---0---0---0----0h4-------4-------|REPEAT X 2
A--7--------7--------5-------------5-----|
E----------------------------------------|


e--3---5---0---0----|
B--3---5---0---0----|
G--5---7---x---4----|
D--5---7---2---5----|x 2
A--3---5---2---5----|
E----------0---3----|

you know my heart


e----------------------------|
B----------------------------|
G--3--5--7-----9--7----------|
D--4--5--7--5--9--7----------|with out dist
A--2--3--5--5--7--5----------|
E-----------3----------------|

ill be ok....
                                     

e--------------------------|
B--------------------------|
G--3--5--7--5--7--7--------|
D--4--5--7--5--7--7--------|with
A--2--3--5--3--9--5--------|
E--------------------------|
outro
e-----------------------------------------------------|
B-----------------------------------------------------|
G--7-----7-----5-----5-----4-----4--------------------|
D--5--5--5--5--5--5--5--5--5--5--5--5--7-5-4-0--------|
A-----------------------------------------------------|
E-----------------------------------------------------| 
   v     v     v     v     v     v

e----------------------------------------|
B----------------------------0-----------|
G-------0-------0----------0---0---------|
D----00---0---0---0----0h4-------4-------|
A--7--------7--------5-------------5-----|
E----------------------------------------|
            
Submit corrections


        Last Something That Meant Anything lessons Hard to play? Try these video lessons and learn fast Last Something That Meant Anything lessons
        
↑ Back to top | Tablatures and chords for acoustic guitar and electric guitar, ukulele, drums are parodies/interpretations of the original songs. You may use it for private study, scholarship, research or language learning purposes only