» » »

Mayday Parade - Keep In Mind Transmogrification Is A New Technology Chords

Artists:  A B C D E F G H I J K L M N O P Q R S T U V W X Y Z # 

Keep In Mind Transmogrification Is A New Technology Chords

(ver. 2) Click to play this song!
Mayday Parade
 Rating:
3.1/5 (23 votes)

 Keep In Mind Transmogrification Is A New Technology  lessons Tabs too difficult? Try these video lessons and learn fast
 
                [Intro]

e|------------------------------------------------------------------|
B|-------1-------1-------1-------1-------1-----0h1-------0h1--------|
G|-----0-------0-------0-------0-----0-------------0---------0------|
D|------------------------------------------------------------------|
A|---3-----------------------0---------0-----0---------0------------|
E|-----------3-------1----------------------------------------------|


e|------------------------------------------------------------------|
B|-------1-------1-------1-------1-------1-------1-------1-----1----|
G|-----0-------0-------0-------0-------0-------0-----0--------------|
D|------------------------------------------------------------------|
A|-0-3-----------------------0-------2------------------------------|
E|-----------3-------1-----------------------3---------3-----3------|


e|---------------------0--------------------------------------------|
B|-----0h1-----1h3--1-----3-----------------------------------------|
G|----------0-------------------------------------------------------|
D|------------------------------------------------------------------|
A|------------------------------------------------------------------|
E|--3---------------------------------------------------------------|
                      I   am

e|------------------------------------------------------------------|
B|-------1-------1-------1-------1-------1-----0h1-------0h1--------|
G|-----0-------0-------0-------0-----0-------------0---------0------|
D|------------------------------------------------------------------|
A|---3-----------------------0---------0-----0---------0------------|
E|-----------3-------1----------------------------------------------|
     selfish  when  I  need you                          I   am

e|------------------------------------------------------------------|
B|-------1-------1-------1-------1-------1--------------------------|
G|-----0-------0-------0-------0-------0----------------------------|
D|------------------------------------------------------------------|
A|-0-3-----------------------0-------2------------------------------|
E|-----------3-------1-----------------------3----------------------|
   the blistering side of the wall in the back 
                                  of your room



[Verse 1]

(F, G, C, F, G, C)

Am                                                    F                         
We watched the sea turn away from the shore and head back out the way that it came
             C                                                  G            
If you are chasing your love, you don't want it enough and it's best just to walk away
                    Am                
Tell yourself your pride is just the same
               F                                    C
Trying not to count the days 'til mine gets washed away
                    G          
Carry your head up along the way


[Chorus]
      Am                                               F                               C
And you'll say you lack the courage and the guts of a hero even when they're on your side
                                            G
Let's watch the middle fade away 'til it's all gone
       Am            
I am selfish when I need you 
            F                                             C
I am the blistering side of the wall in the back of your room
                               G                              Am   F 
I am the envy of what you're afraid to write and that's fine


[Verse 2]
                    C                           G    
Seems to me like everyone around here is just waiting
               Am                    
I don't wanna move cause it's just enough
               F                   
I don't wanna blink cause I might miss it
                 C             
Tell me when it gets to be too much
             G                 
Carry your head up along the way


[Chorus]
      Am                                               F                           C
And you'll say you lack the courage and the guts of a hero, and everybodys on your side
                                            G
We'll watch the middle fade away 'til it's all gone
       Am            
I am selfish when I need you 
            F                                             C
I am the blistering side of the wall in the back of your room
                               G                              Am   F 
I am the envy of what you're afraid to write and that's fine


[Bridge 1]

e|------------------------------------------------------------------|
B|-------1-------1-------1-------1-------1-----0h1-------0h1--------|
G|-----0-------0-------0-------0-----0-------------0---------0------|
D|------------------------------------------------------------------|
A|---3-----------------------0---------0-----0---------0------------|
E|-----------3-------1----------------------------------------------|


e|------------------------------------------------------------------|
B|-------1-------1-------1-------1-------1-------1-------1-----1----|
G|-----0-------0-------0-------0-------0-------0-----0--------------|
D|------------------------------------------------------------------|
A|-0-3-----------------------0-------2------------------------------|
E|-----------3-------1-----------------------3---------3-----3------|


e|---------------------0--------------------------------------------|
B|-----0h1-----1h3--1-----3-----------------------------------------|
G|----------0-------------------------------------------------------|
D|------------------------------------------------------------------|
A|------------------------------------------------------------------|
E|--3---------------------------------------------------------------|


[Verse 3]

(Repeat the bridge tab for this verse or play the chords for this verse)

 C                 G              Am
All we need is a place we can be alone
 C                      G                         Am                 F
Just with you and with me and without all this desperate weight that I have
 C                G             Am
All I want is to just be honest
 C                        G                    Am        F                   C  G  F  Am
You're the piece that I just found out how to fit to and I don't see you anymore

(C, G, F, Am, Em, G)

(C, G, F, Am)

(C, G, F, Am, Em, G)


[Chorus-End]

       Am            
I am selfish when I need you 
            F                                             C
I am the blistering side of the wall in the back of your room
                               G                              Am    
I am the envy of what you're afraid to write and that's fine
                                        F
You lack the courage and the guts of a hero
                         C
And everybody's on your side
                                            G
We'll watch the middle fade away 'til it's all gone
                     Am
I just wanna waste your time 

(F, C, G)
            
Submit corrections


        Keep In Mind Transmogrification Is A New Technology  lessons Hard to play? Try these video lessons and learn fast Keep In Mind Transmogrification Is A New Technology  lessons
        
↑ Back to top | Tablatures and chords for acoustic guitar and electric guitar, ukulele, drums are parodies/interpretations of the original songs. You may use it for private study, scholarship, research or language learning purposes only