» » »

Mayday Parade - Keep In Mind Transmogrification Is A New Technology Tabs

Artists:  A B C D E F G H I J K L M N O P Q R S T U V W X Y Z # 

Keep In Mind Transmogrification Is A New Technology Tabs

(ver. 1) Click to play this song!
Mayday Parade
 Rating:
4.3/5 (21 vote)

 Keep In Mind Transmogrification Is A New Technology  lessons Tabs too difficult? Try these video lessons and learn fast
 
                [Intro]
(guitar 1 only)
e|-------------------------|-1./3.-------------------|-2.----------------------------------0---|-4.-------||
B|-------------------------|-------------------------|-----------------------------------------|----------||
G|-----5-----5-----5-----5-|-----5---4h5-----4h5-----|-----5-----5-----5---5---4h5---5-7-5---5-|-----5----||
D|---5-----5-----5-----5---|-5-----------5-------5---|---5-----5---5---------------5-----------|---5------||
A|-3-----------------0-----|---0---0-------0-------0-|-2---------------------------------------|-2--------||
D|-------5-----3-----------|-------------------------|-------5-------5---5---5-----------------|-------5~-||


[Band intro]

Guitar 1, 2x
e|--------------------------------------------------|
B|--------------------------------------------------|
G|-10-10---9~---9-10-10-9----9-12--12-9~--5~--7~----|
D|--------------------------------------------------|
A|--8--8---7~---7--8--8-7----7-10--10-7~--3~--5~----|
D|--------------------------------------------------|

Guitar 2, 2x
e|--------------------------------------------------|
B|--------------------------------------------------|
G|--------------------------------------------------|
D|--------------------------------------------------|
A|-3-3-3~--0-2-3-3-3~--0-2-5-5-5~-5\3~--5~----------|
D|-3-3-3~--0-2-3-3-3~--0-2-5-5-5~-5\2~--5~----------|


[Verse]
(guitar 2 only):
e|--------------3~-------------------------------------------------------------------------------------|
B|---------1~---3~-------------------------------------------------------------------------------------|
G|-5~------0~---0~-----------------------------------5-5-5~-5~-5-5-5~-5~-------------------------------|
D|---------2~---0~---7-7-7~--7-7-7~--3-3-3~--3-3-3~--5-5-5~-5~-5-5-5~-5~-5-5-5~------5~-----5~-55~-55~-|
A|-3~------3~---2~---7-7-7~--7-7-7~--3-3-3~--3-3-3~--3-3-3~-3~-3-3-3~-3~-5-5-5~------5~-----5~-55~-55~-|
D|-------------------7-7-7~--7-7-7~--3-3-3~--3-3-3~----------------------5-5-5~--xxx-5~-xxx-5~-55~-55~-|


[Prechorus]

Guitar 1
e|-13~-12~----|----------------------------|
B|--------13~-|----------------------------|
G|------------|---9~-9------7~-7-----4-----|
D|------------|---------x14-------x6----x8-|
A|------------|---7~-7------5~-5-----2-----|
D|---------4x-|----------------------------|

Guitar 2
e|-----------------------------------------|
B|-----------------------------------------|
G|------------------5----------------------|
D|-7~----------\3~--5--x16-5---------------|
A|-7~----------\3~--3------5--x16----------|
D|-7~----------\3~---------5---------------|


[Chorus] x2

Guitar 1, 2x
e|--------------------------------------------------|
B|--------------------------------------------------|
G|-10-10---9~---9-10-10-9----9-12--12-9~--5~--7~----|
D|--------------------------------------------------|
A|--8--8---7~---7--8--8-7----7-10--10-7~--3~--5~----|
D|--------------------------------------------------|

Guitar 2, 2x
e|--------------------------------------------------|
B|--------------------------------------------------|
G|--------------------------------------------------|
D|--------------------------------------------------|
A|-3-3-3~--0-2-3-3-3~--0-2-5-5-5~-5\3~--5~----------|
D|-3-3-3~--0-2-3-3-3~--0-2-5-5-5~-5\2~--5~----------|


[Verse 2]

Guitar 1
e|-0~-----------------------------------------------------------|
B|----0---------------------------------------------------------|
G|------4b5~---------------(silence)----------------------------|
D|--------------------------------------------------------------|
A|--------------------------------------------------------------|
D|--------------------------------------------------------------|

Guitar 2
e|------------------------------------------------------------------------------------------------|
B|------------------------1~----3~----5~------------6~--------------------8~------666-5555-3------|
G|-2~---------------------0~----2~-------5~--7~-5~-----5-7~-9~-5~---7~-5~-----5~-------------4b5~-|
D|-2~---------------------2~----0~----------------------------------------------------------------|
A|-0~-------------------3~~~----------------------------------------------------------------------|
D|------------(3)~~~~~----------------------------------------------------------------------------|


[Prechorus]

Guitar 1
e|-13~-12~----|----------------------------|
B|--------13~-|----------------------------|
G|------------|---9~-9------7~-7-----4-----|
D|------------|---------x14-------x6----x8-|
A|------------|---7~-7------5~-5-----2-----|
D|---------4x-|----------------------------|

Guitar 2
e|-----------------------------------------|
B|-----------------------------------------|
G|------------------5----------------------|
D|-7~----------\3~--5--x16-5---------------|
A|-7~----------\3~--3------5--x16----------|
D|-7~----------\3~---------5---------------|


[Chorus] x2

Guitar 1, 2x
e|--------------------------------------------------|
B|--------------------------------------------------|
G|-10-10---9~---9-10-10-9----9-12--12-9~--5~--7~----|
D|--------------------------------------------------|
A|--8--8---7~---7--8--8-7----7-10--10-7~--3~--5~----|
D|--------------------------------------------------|

Guitar 2, 2x
e|--------------------------------------------------|
B|--------------------------------------------------|
G|--------------------------------------------------|
D|--------------------------------------------------|
A|-3-3-3~--0-2-3-3-3~--0-2-5-5-5~-5\3~--5~----------|
D|-3-3-3~--0-2-3-3-3~--0-2-5-5-5~-5\2~--5~----------|


[Bridge]

Guitar 1
e|-------------------------|-1./3.-------------------|-2./4.-----------------------------------||
B|-------------------------|-------------------------|-------------------------------------5---||
G|-----5-----5-----5-----5-|-----5---4h5-----4h5-----|-----5-----5-----5---5---4h5---5-7-5---5-||
D|---5-----5-----5-----5---|-5-----------5-------5---|---5-----5---5---------------5-----------||
A|-3-----------------0-----|---0---0-------0-------0-|-2---------------------------------------||
D|-------5-----3-----------|-------------------------|-------5-------5---5---5-----------------||

Guitar 2
e|----------------------------------------------------------------|
B|-5~-------------------------------------------------------------|
G|-5~-------------------------------------------------------------|
D|-5~-------------------------------------------------------------|
A|-3~-------------------------------------------------------------|
D|----------------------------------------------------------------|


[Bridge Pt. 2]

Guitar 1
e|-------------------------|-1./3.-------------------|-2./4.-----------------------------------||
B|-------------------------|-------------------------|-------------------------------------5---||
G|-----5-----5-----5-----5-|-----5---4h5-----4h5-----|-----5-----5-----5---5---4h5---5-7-5---5-||
D|---5-----5-----5-----5---|-5-----------5-------5---|---5-----5---5---------------5-----------||
A|-3-----------------0-----|---0---0-------0-------0-|-2---------------------------------------||
D|-------5-----3-----------|-------------------------|-------5-------5---5---5-----------------||

Guitar 2
e|------------------------|--------1.-|-------2.-----------------||
B|------------------------|-----------|--------------------------||
G|-5~----------5~---------|-----------|-5~-----------------------||
D|-5~-5-3-7~---5~-5-3-7-9-|-5~--------|-5~------\\\--------------||
A|-3~-5-3-7~---3~-5-3-7-9-|-7~--\5~---|---------\\\-(pickscr*pe)-||
D|----5-3-7~------5-3-7-9-|-5~--------|-5~------\\\--------------||

Guitar 1, 3x
e|-----------------------------------------------------------------|    |--------------------|
B|-----------------------------------------------------------------|    |--------------------|
G|---------------------------------5-5-5-5-5-5-5-5-----------------|    |--------------------|
D|-7-7-7-7-7-7-7-7-3-3-3-3-3-3-3-3-5-5-5-5-5-5-5-5-5-5-5-5-5-5-5-5-| 3x |-7~----3~----10~----|
A|-7-7-7-7-7-7-7-7-3-3-3-3-3-3-3-3-3-3-3-3-3-3-3-3-5-5-5-5-5-5-5-5-|    |-7~----3~----10~----|
D|-7-7-7-7-7-7-7-7-3-3-3-3-3-3-3-3-----------------5-5-5-5-5-5-5-5-|    |-7~----3~----10~----|

Guitar 2
e|-------------------------------------------------------------------------------------------|
B|-13-13-1313~-13-13-13\12-1212--------------------------------------------------------------|
G|------------------------------10-10-1010--12-12--10-10-9-9-99~-9-9-9/10-9--7-7-7-7-4-4-4-4-|
D|-10-10-1010~-10-10-10\9--9-9---------------------------------------------------------------|
A|------------------------------8--8--8-8---10-10--8--8--7-7-77~-7-7-7/8--7--5-5-5-5-2-2-2-2-|
D|-------------------------------------------------------------------------------------------|

e|------------------|-------------------|           
B|---13~-12~-13--13-|---13~-12~-13-1515-|        
G|-12----------12---|-12----------------| 6x
D|------------------|-------------------|          
A|------------------|-------------------|           
D|---------------3x-|-------------------|         

Guitar 3 (harmony guitar)
e|------------------|------------------|
B|------------------|------------------| 
G|----9~-7~-9----9--|----9~-7~-9~-1010-| 3x
D|-10---------10----|-10---------------|            
A|------------------|------------------|
D|---------------3x-|------------------|            
Submit corrections


        Keep In Mind Transmogrification Is A New Technology  lessons Hard to play? Try these video lessons and learn fast Keep In Mind Transmogrification Is A New Technology  lessons
        
↑ Back to top | Tablatures and chords for acoustic guitar and electric guitar, ukulele, drums are parodies/interpretations of the original songs. You may use it for private study, scholarship, research or language learning purposes only