» » »

Mayday Parade - I'd Hate To Be You When People Find Out What This Song Is About Tabs

Artists:  A B C D E F G H I J K L M N O P Q R S T U V W X Y Z # 

I'd Hate To Be You When People Find Out What This Song Is About Tabs

(ver. 3) Click to play this song!
Mayday Parade
 Rating:
4/5 (4 votes)

 I'd Hate To Be You When People Find Out What This Song Is About lessons Tabs too difficult? Try these video lessons and learn fast
 
                
Main Theme, Intro Solo and the Main Solo.
This is my first ever tab so I hope its ok!
Blake


Intro / Main Theme
e|--------------------------------------------------------------------------|
B|----3-3--3-3---3-3---3-3--------------------------------------------------|
G|--------------0-0-0-0-0-0---x4--------------------------------------------|
D|--0--0--0-0--0-----4------------------------------------------------------|
A|-2-----3------------------------------------------------------------------|
E|--------------------------------------------------------------------------|

Intro Solo
e|--10-----------------------------------10------------10--------------------------------|
b|-----8-7-8---8-----------------8-8-7h8----7h8p7---------8-7-8----8---------------------|
G|-----------9---7-5-5-5h7--7-7----------------------------------9---7-5-5-5h7-7~--------|
D|--------------------------------------------------------------------------------5-5-7-7|
A|---------------------------------------------------------------------------------------|
E|---------------------------------------------------------------------------------------|





Verse 1
e|--------------------------------------------------------------------------|
B|----3-3--3-3---3-3---0-3--------------------------------------------------|
G|--------------0-0-0-0-0-0---x4--------------------------------------------|
D|--0--0--0-0--0-----4------------------------------------------------------|
A|-2-----3------------------------------------------------------------------|
E|--------------------------------------------------------------------------|

Verse 1 Backing
e|---------10~-10-----------------------------------------------------------|
B|-12~-13~-12--10~----x2----------------------------------------------------|
G|--------------------------------------------------------------------------|
D|--------------------------------------------------------------------------|
A|--------------------------------------------------------------------------|
E|--------------------------------------------------------------------------|





Chorus
e|--------------------------------------------------------------------------|
B|--------------------------------------------------------------------------|
G|----5-----7---------5--7--7--------5-----7----------5-----7---------------|
D|-2--5--5--7------2--5--7--7-----2--5--5--7-------2--5--5--7---------------|
A|-2--3--5--5------2--3--5--5-----2--3--5--5-------2--3--5--5---------------|
E|-0-----3---------0--------------0-----3----------0-----3------------------|

Post Chorus
e|--------------------------------------------------------------------------|
B|--------------------------------------------------------------------------|
G|-5-7-9-11-12-12-/14-11----------------------------------------------------|
D|-x-x-x--x--x--x--x---x----------------------------------------------------|
A|-3-5-7-9--10-10-/12--9----------------------------------------------------|
E|--------------------------------------------------------------------------|






Verse 2
e|--------------------------------------------------------------------------|
B|----3-3--3-3---3-3---0-3--------------------------------------------------|
G|--------------0-0-0-0-0-0---x2--------------------------------------------|
D|--0--0--0-0--0-----4------------------------------------------------------|
A|-2-----3------------------------------------------------------------------|
E|--------------------------------------------------------------------------|

Verse 2 cont. palm muted
e|--------------------------------------------------------------------------|
B|--------------------------------------------------------------------------|
G|---5---7-----5------------------------------------------------------------|
D|-2-5-5-7--2--5-5-4--------------------------------------------------------|
A|-2-3-5-5--2--3-5-5--------------------------------------------------------|
E|-0---3----0----3-2--------------------------------------------------------|

Prechorus (Listen to song for timing)
e|--------------------------------------------------------------------------|
B|--------------------------------------------------------------------------|
G|-9---7---5---5------------------------------------------------------------|
D|-9---7---5---5-x2---------------------------------------------------------|
A|-7---5---3---3------------------------------------------------------------|
E|--------------------------------------------------------------------------|





Chorus
e|--------------------------------------------------------------------------|
B|--------------------------------------------------------------------------|
G|----5-----7---------5--7--7--------5-----7----------5-----7---------------|
D|-2--5--5--7------2--5--7--7-----2--5--5--7-------2--5--5--7---------------|
A|-2--3--5--5------2--3--5--5-----2--3--5--5-------2--3--5--5---------------|
E|-0-----3---------0--------------0-----3----------0-----3------------------|

Post Chorus
e|--------------------------------------------------------------------------|
B|--------------------------------------------------------------------------|
G|-5-7-9-11-12-12-/14-11----------------------------------------------------|
D|-x-x-x--x--x--x--x---x----------------------------------------------------|
A|-3-5-7-9--10-10-/12--9----------------------------------------------------|
E|--------------------------------------------------------------------------|





Bridge
e|--------------------------------------------------------------------------|
B|----3-3--3-3---3-3---3-3--------------------------------------------------|
G|--------------0-0-0-0-0-0------------#####\\\\\\\\\-----------------------|
D|--0--0--0-0--0-----4-----------------#####\\\\\\\\\-----------------------|
A|-2-----3-----------------------------#####\\\\\\\\\-----------------------|
E|-------------------------------------#####\\\\\\\\\-----------------------|



                                        

Solo Intro Scale
e|--------------------------------------------------------------------------|
B|--------------------5-7-8--10---------------------------------------------|
G|-----------4-7--5-7-------------------------------------------------------|
D|-------5-7----------------------------------------------------------------|
A|---5-7--------------------------------------------------------------------|
E|--------------------------------------------------------------------------|


Solo
e|----------10---------10--10/12/10--10-7h10p8p7h8p7-5---5\-----------------|
B|--8---7-8----8---7-8---8--------------------------------------------------|
G|--------------------------------------------------------------------------|
D|--------------------------------------------------------------------------|
A|--------------------------------------------------------------------------|
E|--------------------------------------------------------------------------|


e|-------------------------------5h7---10----10h12-15p12----15\14---14\-----|
B|-----------------------5h8-5h8----------12-------------15-----------------|
G|---------------4h7-4h7 ---------------------------------------------------|
D|-------5---5h7------------------------------------------------------------|
A|---5h7--7-----------------------------------------------------------------|
E|--------------------------------------------------------------------------|

e|--------------------------------------------------------------------------|
B|--15^^-12-15-12---15-12--------------12-15-15-------12-15-15--15\---------|
G|------------------------14-12----14^^-----------14^^----------------------|
D|--------------------------------------------------------------------------|
A|--------------------------------------------------------------------------|
E|--------------------------------------------------------------------------|

e|--15p12-------15p12-------------------------------------------------------|
B|--------15p12-------15p12-15p12-------15p12-------------------------------|
G|--------------------------------14p12-------14p12-14p12-------12-12-12~---|
D|--------------------------------------------------------14p12-------------|
A|--------------------------------------------------------------------------|
E|--------------------------------------------------------------------------|

e|-----------17^^-------15--------------------------------------------------|
B|-----12-15----------------------------------------------------------------|
G|--14----------------------------------------------------------------------|
D|--------------------------------------------------------------------------|
A|--------------------------------------------------------------------------|
E|--------------------------------------------------------------------------|



Solo Backing
e|--------------------------------------------------------------------------|
B|--------------------------------------------------------------------------|
G|----5-----7---------5-----7--------5-----7----------5-----7---------------|
D|-2--5--5--7------2--5--5--7-----2--5--5--7-------2--5--5--7---------------|
A|-2--3--5--5------2--3--5--5-----2--3--5--5-------2--3--5--5---------------|
E|-0-----3---------0-----3--------0-----3----------0-----3------------------|





Chorus
e|--------------------------------------------------------------------------|
B|--------------------------------------------------------------------------|
G|----5-----7---------5--7--7--------5-----7----------5-----7---------------|
D|-2--5--5--7------2--5--7--7-----2--5--5--7-------2--5--5--7---------------|
A|-2--3--5--5------2--3--5--5-----2--3--5--5-------2--3--5--5---------------|
E|-0-----3---------0--------------0-----3----------0-----3------------------|

Post Chorus
e|--------------------------------------------------------------------------|
B|--------------------------------------------------------------------------|
G|-5-7-9-11-12-12-/14-11----------------------------------------------------|
D|-x-x-x--x--x--x--x---x----------------------------------------------------|
A|-3-5-7-9--10-10-/12--9----------------------------------------------------|
E|--------------------------------------------------------------------------|





~ let ring
h hammer on
p pull off
^ bend up
/ slide up
\ slide down
#\ pick slide
            
Submit corrections


        I'd Hate To Be You When People Find Out What This Song Is About lessons Hard to play? Try these video lessons and learn fast I'd Hate To Be You When People Find Out What This Song Is About lessons
        
↑ Back to top | Tablatures and chords for acoustic guitar and electric guitar, ukulele, drums are parodies/interpretations of the original songs. You may use it for private study, scholarship, research or language learning purposes only