» » »

Mayday Parade - I'd Hate To Be You When People Find Out What This Song Is About Tabs

Artists:  A B C D E F G H I J K L M N O P Q R S T U V W X Y Z # 

I'd Hate To Be You When People Find Out What This Song Is About Tabs

(ver. 2) Click to play this song!
Mayday Parade
 Rating:
4/5 (4 votes)

 I'd Hate To Be You When People Find Out What This Song Is About lessons Tabs too difficult? Try these video lessons and learn fast
 
                intro pt1 lead clean, mess around with these arps
e|---------------------------------------------------------------------------|
B|----3-3--3-3---3-3---3-3---------------------------------------------------|
G|--------------0-0-0-0-0-0---x4---------------------------------------------|
D|--2--2--2-2--0-----4-------------------------------------------------------|
A|-2-----3-------------------------------------------------------------------|
E|---------------------------------------------------------------------------|

intro part 2 backup guitar
e|----------------------------------------------------------------------------|
B|----------------------------------------------------------------------------|
G|---5---7--------------------------------------------------------------------|
D|-2-5-5-7--------------------------------------------------------------------|
A|-2-3-5-5--------------------------------------------------------------------|
E|-0---3----------------------------------------------------------------------|

intro part 2 lead
e|--10----------------------------10------------10--------------------------------|
b|-----8-7-8---7------------8-7h8----7h8p8---------8-7-8----7---------------------|
G|-----------9---7-5-5-5h7-----------------7--------------9---7-5-5-5h7-7~--------|
D|-------------------------------------------------------------------------5-5-7-7|
A|--------------------------------------------------------------------------------|
E|--------------------------------------------------------------------------------|

verse 1 backup guitar
e|---------------------------------------------------------------------------|
B|----3-3--3-3---3-3---0-3---------------------------------------------------|
G|--------------0-0-0-0-0-0---x4---------------------------------------------|
D|--2--2--2-2--0-----4-------------------------------------------------------|
A|-2-----3-------------------------------------------------------------------|
E|---------------------------------------------------------------------------|

Verse 1 lead
e|---------10~---------------------------------------------------------------|
B|-12~-13~-----10~----x2-----------------------------------------------------|
G|---------------------------------------------------------------------------|
D|---------------------------------------------------------------------------|
A|---------------------------------------------------------------------------|
E|---------------------------------------------------------------------------|

Chorus
e|----------------------------------------------------------------------------|
B|----------------------------------------------------------------------------|
G|-2-5---7--------------------------------------------------------------------|
D|-2-5-5-7--------------------------------------------------------------------|
A|-0-3-5-5--------------------------------------------------------------------|
E|-----3----------------------------------------------------------------------|

post chorus
e|---------------------------------------------------------------------------|
B|---------------------------------------------------------------------------|
G|-9-11-12-14-11-12-14-11----------------------------------------------------|
D|-x-x--x--x--x--x--x--x-----------------------------------------------------|
A|-7-9--10-12-9/-10-12-9-----------------------------------------------------|
E|---------------------------------------------------------------------------|

Verse2
e|---------------------------------------------------------------------------|
B|----3-3--3-3---3-3---0-3---------------------------------------------------|
G|--------------0-0-0-0-0-0---x2---------------------------------------------|
D|--2--2--2-2--0-----4-------------------------------------------------------|
A|-2-----3-------------------------------------------------------------------|
E|---------------------------------------------------------------------------|

Verse 2 cont. palm muted
e|---------------------------------------------------------------------------|
B|---------------------------------------------------------------------------|
G|---5---7-----5-------------------------------------------------------------|
D|-2-5-5-7--2--5-5-4---------------------------------------------------------|
A|-2-3-5-5--2--3-5-5---------------------------------------------------------|
E|-0---3----0----3-2---------------------------------------------------------|

Prechorus
e|---------------------------------------------------------------------------|
B|---------------------------------------------------------------------------|
G|-12-7~-5-5-----------------------------------------------------------------|
D|-12-7~-5-5-x2--------------------------------------------------------------|
A|-10-5~-3-3-----------------------------------------------------------------|
E|---------------------------------------------------------------------------|

Chorus
e|----------------------------------------------------------------------------|
B|----------------------------------------------------------------------------|
G|---5---7--------------------------------------------------------------------|
D|-2-5-5-7--x4----------------------------------------------------------------|
A|-2-3-5-5--------------------------------------------------------------------|
E|-0---3----------------------------------------------------------------------|

post chorus
e|--------------------------------------------------------------------------|
B|--------------------------------------------------------------------------|
G|-9-11-12-14-11-12-14-11---------------------------------------------------|
D|-x-x--x--x--x--x--x--x----------------------------------------------------|
A|-7-9--10-12-9/-10-12-9----------------------------------------------------|
E|--------------------------------------------------------------------------|

Bridge
e|--------------------------------------------------------------------------|
B|----3-3--3-3---3-3---0-3--------------------------------------------------|
G|--------------0-0-0-0-0-0---x2-7~---p-s-----------------------------------|
D|--2--2--2-2--0-----4-----------7~---i-l-///////////-----------------------|
A|-2-----3-----------------------5~---c-i-----------------------------------|
E|------------------------------------k-d-----------------------------------|
                                        e
solo backup guitar
e|-----------------------------------------------------------------------------|
B|-----------------------------------------------------------------------------|
G|---5---7---------------------------------------------------------------------|
D|-0-5-5-7-x4------------------------------------------------------------------|
A|-0-3-5-5---------------------------------------------------------------------|
E|-0----3----------------------------------------------------------------------|


e|-------10-------10--10/12/10--7h10p8p7h8p7--7-----------------------------|
B|-8-7-8----8-7-8---8-----------------------10--10~-------------------------|
G|--------------------------------------------------------------------------|
D|--------------------------------------------------------------------------|
A|--------------------------------------------------------------------------|
E|--------------------------------------------------------------------------|


e|---------------------------0h3-5h7--10-10/12/15/12/10/14~-----------------|
B|-----------------------5h8------------8-----------------------------------|
G|---------------4h7-4h7 ---------------------------------------------------|
D|-------5---5h7------------------------------------------------------------|
A|-5-5h7--7-----------------------------------------------------------------|
E|--------------------------------------------------------------------------|

e|12^^--------------------------------10-10-------10-10-10/0----------10h12-17^|
B|----10-1010h12-12b13ub12p10----10/12------10/12-------------[E]10/12---------|
G|----------------------------12-----------------------------------------------|
D|-----------------------------------------------------------------------------|
A|-----------------------------------------------------------------------------|
E|-----------------------------------------------------------------------------|

Chorus
e|--------------------------------------------------------------------------|
B|--------------------------------------------------------------------------|
G|---5---7------------------------------------------------------------------|
D|-2-5-5-7-x4---------------------------------------------------------------|
A|-2-3-5-5------------------------------------------------------------------|
E|-0---3--------------------------------------------------------------------|

post chorus
e|--------------------------------------------------------------------------|
B|--------------------------------------------------------------------------|
G|-9-11-12-14-11-12-14-11---------------------------------------------------|
D|-x-x--x--x--x--x--x--x----------------------------------------------------|
A|-7-9--10-12-9/-10-12-9----------------------------------------------------|
E|--------------------------------------------------------------------------|


[E] At this part go nuts with your favorite E scale starting from the
12th fret as long as you end on e----
                                b----
                                g-10-
                                d----
                                a----
                                e----

~ let ring
h hammer on
p pull off
^ bend up
/ slide


aim. [Tom2theob] if you would like to chat misc. guitar pwnage.
            
Submit corrections


        I'd Hate To Be You When People Find Out What This Song Is About lessons Hard to play? Try these video lessons and learn fast I'd Hate To Be You When People Find Out What This Song Is About lessons
        
↑ Back to top | Tablatures and chords for acoustic guitar and electric guitar, ukulele, drums are parodies/interpretations of the original songs. You may use it for private study, scholarship, research or language learning purposes only