» » »

Mayday Parade - Black Cat Tabs

Artists:  A B C D E F G H I J K L M N O P Q R S T U V W X Y Z # 

Black Cat Tabs

(ver. 2) Click to play this song!
Mayday Parade
 Rating:
4/5 (13 votes)

 Black Cat lessons Tabs too difficult? Try these video lessons and learn fast
 
                this is what i hear.
it sounds correct.
message me or something if you have questions.

GUITAR 1

Verse:
e|----------------------------------------------------------|
B|----------------------------------------------------------|
G|----7777777-----6667777-----6666666-----121212---9--9--9--|
D|----9999999-----7777777-----7777777-----131313--11-11-11--| 
A|----------------------------------------------------------|
E|----------------------------------------------------------|

e|-------------------------------------------------------|
B|-------------------------------------------------------|
G|----7777777-----6667777-----6666666-----11~--11--------|
D|----9999999-----7777777-----7777777-----11~-----11-----|
A|-----------------------------------------9~--------13--|
E|-------------------------------------------------------|

Chorus:
e|--------------------------------------------------|
B|--------------------------------------------------|
G|--44444444444444--4444444-7-----------------------|
D|--44444444444444--4444444-7-7--55555555-77777777--| 2x
A|--20202020202020--2020202-5-7--55555555-77777777--|
E|----------------------------5--33333333-55555555--|

Verse 2:
e|---------------------------------------------------------|
B|---------------------------------------------------------|
G|----7777777-----6667777-----6666666-----121212------7-6--|
D|----9999999-----7777777-----7777777-----131313--7-9------|
A|---------------------------------------------------------|
E|---------------------------------------------------------|

e|---------------------------------------------|
B|---------------------------------------------|
G|----7777777-----6667777-----6666666------4~--|
D|----9999999-----7777777-----7777777------7~--|
A|-----------------------------------------6~--|
E|---------------------------------------------|

Chorus

Bridge:
no GUITAR 1 for the first part

Then:
e|-----|
B|-----|
G|--4--|
D|--4--|
A|--2--|
E|-----|

During Solo:
e|---------------------------|
B|---------------------------|
G|--4--44--4-44--------------| 
D|--4--44--4-44--5-55--5-55--|  2x
A|--2--22--2-22--5-55--5-55--|
E|---------------3-33--3-33--|

Interlude:
e|--------------------------------------|
B|--------------------------------------|
G|--------------------------7-----------|
D|--------------------------7-7--5~--4--|
A|--20202020202020--2020202-5-7--5~--4--|
E|----------------------------5--3~--2--|

Chorus

Outro:
e|-----------------------|
B|-----------------------|
G|--4-44--4-44-----------| 
D|--4-44--4-44--5-55--7--|  
A|--2-22--2-22--5-55--7--|
E|--------------3-33--5--|

e|-----------------------------|
B|-----------------------------|
G|-----------------------------|
D|--4-2-4-0-2-0-------0-2-0----|
A|--------------4-5-4-------2--|
E|-----------------------------|


GUITAR 2

Verse:
e|-------------------------------|
B|-------------------------------|
G|-------------------------------|
D|-------------------------------|
A|-----------------------55--44--|
E|--5h7----2h3----3h5------------|

e|--------------------------------P----|
B|--------------------------------I-S--|
G|--------------------------------C-L--|
D|---------------2-------4-2--4~--K-I--|
A|--2~--4-5--------5----------4~----D--|
E|-----------3~-------5~------2~----E--|

Chorus:
e|--------------------------------|
B|--------------------------------|
G|--76767676767676--7676767--7----|
D|--77777777777777--7777777--7-7--|
A|--55555555555555--5555555--5-7--|
E|-----------------------------5--|

e|--------------------------------------------|
B|--------------------------------------------|
G|----------11-9------------------11-9----11--|
D|--9h11h12------11-11p9--9h11h12------11-----|
A|--------------------------------------------|
E|--------------------------------------------|

e|--------------------------------|
B|--------------------------------|
G|--76767676767676--7676767--7----|
D|--77777777777777--7777777--7-7--|
A|--55555555555555--5555555--5-7--|
E|-----------------------------5--|

e|----------------------------------------------|
B|----------------------------------------------|
G|----------11-9------------------11-9----11----|
D|--9h11h12------11-11p9--9h11h12------11----9--|
A|----------------------------------------------|
E|----------------------------------------------|

Verse 2:
e|-----------------------------14--|
B|--------------------12-14-15-----|
G|---------------------------------|
D|---------------------------------|
A|----------------55---------------|
E|--2h3----3h5---------------------|

e|------------------------------------|
B|------------------------------------|
G|------------------------------------|
D|--9~--11-12--9~--11-12--11~--12-11--|
A|------------------------------------|
E|------------------------------------|

e|-----------------------------------------------------------|
B|-----------------------------------------------------------|
G|--11p9h11--------------11p9h11---------11p9h11-------------|
D|----------11h12-9h11~----------11h12p9---------11h12p11-9--|
A|-----------------------------------------------------------|
E|-----------------------------------------------------------|

Chorus:
e|--------------------------------|
B|--------------------------------|
G|--76767676767676--7676767--7----|
D|--77777777777777--7777777--7-7--|
A|--55555555555555--5555555--5-7--|
E|-----------------------------5--|

e|--------------------------------------------|
B|--------------------------------------------|
G|----------11-9------------------11-9----11--|
D|--9h11h12------11-11p9--9h11h12------11-----|
A|--------------------------------------------|
E|--------------------------------------------|

e|--------------------------------|
B|--------------------------------|
G|--76767676767676--7676767--7----|
D|--77777777777777--7777777--7-7--|
A|--55555555555555--5555555--5-7--|
E|-----------------------------5--|

e|-------------------------------------------|
B|-------------------------------------------|
G|----------11-9------------------11-9----9--|
D|--9h11h12------11-11p9--9h11h12------11----|
A|-------------------------------------------|
E|-------------------------------------------|

I can't figure out the whole Bridge.
Or the Solo.
And I don't have time to tab out the rest of the GUITAR 2 part.
Sorry. :[
            
Submit corrections


        Black Cat lessons Hard to play? Try these video lessons and learn fast Black Cat lessons
        
↑ Back to top | Tablatures and chords for acoustic guitar and electric guitar, ukulele, drums are parodies/interpretations of the original songs. You may use it for private study, scholarship, research or language learning purposes only