» » »

Mayday Parade - Black Cat Tabs

Artists:  A B C D E F G H I J K L M N O P Q R S T U V W X Y Z # 

Black Cat Tabs

(ver. 1) Click to play this song!
Mayday Parade
 Rating:
4/5 (7 votes)

 Black Cat lessons Tabs too difficult? Try these video lessons and learn fast
 
                
Verse 1
e----22222222---22222222------------------------|
b----33333333---22223333---33333333---2222/5555-|
g----44444444---44444444---44444444---3333/6666-|
D--------------------------55555555---4444/7777-|
A-0h2--------0h2--------0h5--------5p0----------| (could be by bass on this)
D-----------------------------------------------|

e----22222222---22222222-------------------------|
b----33333333---22223333---33333333---2222/5555--|
g----44444444---44444444---44444444---3333/6666--|
D--------------------------55555555---4444/7777--|
A-0h2--------0h2--------0h5--------5p0-----------|
D------------------------------------------------|

Guitar 1 holds out the last chord (*) and guitar does a pick slide into the chorus

Chorus
guitar one
    B-------------------------D----E-----G-------------A--------|
e---------------------------------------------------------------|
b---------------------------------------------------------------|
g---4-4-4444-4-4-4444-4-4-4444/7777/9999-77777777------99999999-|
D---4-4-4444-4-4-4444-4-4-4444/7777/9999-55555555------77777777-|
A---2-2-2222-2-2-2222-2-2-2222/5555-5555-55555555------77777777-|
D----------------------------------------55555555------77777777-|

                                        Played on G    Played on A of chorus
Guitar 2                                -------------- ----------------|
e----------------------------------------------2--------------2--------|
b-----------------------------------------------3-2h3----------3 2h3/5-|
g---4-4-4444-4-4-4444-4-4-4444/7777/9999----2h4------4-----2h4---------|
D---4-4-4444-4-4-4444-4-4-4444/7777/9999-2h4------------2h4------------|
A---2-2-2222-2-2-2222-2-2-2222/5555-5555-------------------------------|
D----------------------------------------------------------------------|

You Repeat all of that for 2nd verse and chorus

Bridge---I Play---
guitar 2
e-----------------------------------------------------|
b-----------------------------------------------------|
g-------------------------9--12p11p9------------------|
D-9--9h11h12--12-9-9h11h12----------12p11p9--9h11h12--|
A---------------------------------------------------9-|
D-----------------------------------------------------|
"She said, get your hands off my star...."
(Repeat)

guitar 1 plays(optional)
e--------------------------------------|
b--------------------------------------|
g-4444444444444444--77777777--99999999-|
D-4444444444444444--55555555--77777777-|
A-2222222222222222--55555555--77777777-|
D-------------------55555555--77777777-|

I don't have the solo yet, but i do have the chords during it
e-------------------------------------------|
b-------------------------------------------|
g-------------------------------------------|
D-9-x-x-x-x-9999-0000--9-x-x-x-x-9999-0000--|
A-9-x-x-x-x-9999-0000--9-x-x-x-x-9999-0000--|
D-9-x-x-x-x-9999-0000--9-x-x-x-x-9999-0000--|
Solo^

e--------------------------------------------|
b--------------------------------------------|
g--------------------------------------------|
D-5-x-x-x-x-5555-0000--7-x-x-x-x--7777-0000--|
A-5-x-x-x-x-5555-0000--7-x-x-x-x--7777-0000--|
D-5-x-x-x-x-5555-0000--7-x-x-x-x--7777-0000--|
"And this jealous actress..."^
Then you'll repeat it again

e-------------------------------------------|
b-------------------------------------------|
g-------------------------------------------|
D-9-x-x-x-x-9999-0000--9-x-x-x-x-9999-0000--|
A-9-x-x-x-x-9999-0000--9-x-x-x-x-9999-0000--|
D-9-x-x-x-x-9999-0000--9-x-x-x-x-9999-0000--|
solo

e--------------------------------------------|
b--------------------------------------------|
g--------------------------------------------|
D-5-x-x-x-x-5555-0000--7-x-x-x-x--7777-0000--|
A-5-x-x-x-x-5555-0000--7-x-x-x-x--7777-0000--|
D-5-x-x-x-x-5555-0000--7-x-x-x-x--7777-0000--|
"And this jealous actress..."^

and back to the chorus.
Chorus
guitar one
    B-------------------------D----E-----G-------------A--------|
e---------------------------------------------------------------|
b---------------------------------------------------------------|
g---4-4-4444-4-4-4444-4-4-4444/7777/9999-77777777------99999999-|
D---4-4-4444-4-4-4444-4-4-4444/7777/9999-55555555------77777777-|
A---2-2-2222-2-2-2222-2-2-2222/5555-5555-55555555------77777777-|
D----------------------------------------55555555------77777777-|

                                        Played on G    Played on A of chorus
Guitar 2                                -------------- ----------------|
e----------------------------------------------2--------------2--------|
b-----------------------------------------------3-2h3----------3 2h3/5-|
g---4-4-4444-4-4-4444-4-4-4444/7777/9999----2h4------4-----2h4---------|
D---4-4-4444-4-4-4444-4-4-4444/7777/9999-2h4------------2h4------------|
A---2-2-2222-2-2-2222-2-2-2222/5555-5555-------------------------------|
D----------------------------------------------------------------------|

Outro
e-------------------------------------------|
b-------------------------------------------|
g-------------------------------------------|
D-9-x-x-x-x-9999-0000--9-x-x-x-x-9999-0000--|
A-9-x-x-x-x-9999-0000--9-x-x-x-x-9999-0000--|
D-9-x-x-x-x-9999-0000--9-x-x-x-x-9999-0000--|


e--------------------------------------------|
b--------------------------------------------|
g--------------------------------------------|
D-5-x-x-x-x-5555-0000--7-x-x-x-x--7777-0000--|
A-5-x-x-x-x-5555-0000--7-x-x-x-x--7777-0000--|
D-5-x-x-x-x-5555-0000--7-x-x-x-x--7777-0000--|
"And this jealous actress..."^

e----------------|
b----------------|
g-1111/99/77/99/4
D-1111/99/77/99/4
A-9-9-/77/55/77/2-|
D-----------------|

This is a great song, sorry i don't have the solo, but i'm sure this is close
            
Submit corrections


        Black Cat lessons Hard to play? Try these video lessons and learn fast Black Cat lessons
        
↑ Back to top | Tablatures and chords for acoustic guitar and electric guitar, ukulele, drums are parodies/interpretations of the original songs. You may use it for private study, scholarship, research or language learning purposes only