» » »

Mavericks - Dance The Night Away Bass

Artists:  A B C D E F G H I J K L M N O P Q R S T U V W X Y Z # 

Dance The Night Away Bass

(ver. 2) Click to play this song!
Mavericks
 Rating:
3.7/5 (26 votes)

 Dance The Night Away lessons Tabs too difficult? Try these video lessons and learn fast
 
                Tuning:Standard

G|---------------------------------------------------------------------------|
D|---------------------------------------------------------------------------|
A|--------------9-----------------9-----------------9-----------------9------|
E|-0-4-6-4-7-11---11-0-4-6-4-7-11---11-0-4-6-4-7-11---11-0-4-6-4-7-11---11---|

G|---------------------------------------------------------------------------|
D|---------------------------------------------------------------------------|
A|--------------9-----------------9-----------------9-----------------9------|
E|-0-4-6-4-7-11---11-0-4-6-4-7-11---11-0-4-6-4-7-11---11-0-4-6-4-7-11---11---|

G|---------------------------------------------------------------------------|
D|---------------------------------------------------------------------------|
A|--------------9-----------------9-----------------9-----------------9------|
E|-0-4-6-4-7-11---11-0-4-6-4-7-11---11-0-4-6-4-7-11---11-0-4-6-4-7-11---11---|

G|---------------------------------------------------------------------------|
D|---------------------------------------------------------------------------|
A|--------------9-----------------9-----------------9-----------------9------|
E|-0-4-6-4-7-11---11-0-4-6-4-7-11---11-0-4-6-4-7-11---11-0-4-6-4-7-11---11---|

G|---------------------------------------------------------------------------|
D|----------------------------------------------------------------------9----|
A|--------------9-----------------9-----------------9-----------------9------|
E|-0-4-6-4-7-11---11-0-4-6-4-7-11---11-0-4-6-4-7-11---11-0-4-6-4-7-11--------|

G|---------------------------------------------------------------------------|
D|---------------------------------------------------------------------------|
A|--------------9-----------------9-----------------9-----------------9------|
E|-0-4-6-4-7-11---11-0-4-6-4-7-11---11-0-4-6-4-7-11---11-0-4-6-4-7-11---11---|

G|---------------------------------------------------------------------------|
D|----------------------------------------------------------------------9----|
A|--------------9-----------------9-----------------9-----------------9------|
E|-0-4-6-4-7-11---11-0-4-6-4-7-11---11-0-4-6-4-7-11---11-0-4-6-4-7-11--------|

G|---------------------------------------------------------------------------|
D|----------------9----------------------------------------------------------|
A|--------------9-----------------9-----------------9-----------------9------|
E|-0-4-6-4-7-11------0-4-6-4-7-11---11-0-4-6-4-7-11---11-0-4-6-4-7-11---11---|

G|---------------------------------------------------------------------------|
D|---------------------------------------------------------------------------|
A|--------------9-----------------9-----------------9-----------------9------|
E|-0-4-6-4-7-11---11-0-4-6-4-7-11---11-0-4-6-4-7-11---11-0-4-6-4-7-11---11---|

G|---------------------------------------------------------------------------|
D|---------------------------------------------------------------------------|
A|--------------9-----------------9-----------------9-----------------9------|
E|-0-4-6-4-7-11---11-0-4-6-4-7-11---11-0-4-6-4-7-11---11-0-4-6-4-7-11---11---|

G|---------------------------------------------------------------------------|
D|---------------------------------------------------------------------------|
A|--------------9-----------------9-----------------9-----------------9------|
E|-0-4-6-4-7-11---11-0-4-6-4-7-11---11-0-4-6-4-7-11---11-0-4-6-4-7-11---11---|

G|---------------------------------------------------------------------------|
D|---------------------------------------------------------------------------|
A|--------------9-----------------9-----------------9-----------------9------|
E|-0-4-6-4-7-11---11-0-4-6-4-7-11---11-0-4-6-4-7-11---11-0-4-6-4-7-11---11---|

G|---------------------------------------------------------------------------|
D|----------------------------------------------------------------------9----|
A|--------------9-----------------9-----------------9-----------------9------|
E|-0-4-6-4-7-11---11-0-4-6-4-7-11---11-0-4-6-4-7-11---11-0-4-6-4-7-11--------|

G|---------------------------------------------------------------------------|
D|---------------------------------------------------------------------------|
A|--------------9-----------------9-----------------9-----------------9------|
E|-0-4-6-4-7-11---11-0-4-6-4-7-11---11-0-4-6-4-7-11---11-0-4-6-4-7-11---11---|

G|---------------------------------------------------------------------------|
D|---------------------------------------------------------------------------|
A|--------------9-----------------9-----------------9-----------------9------|
E|-0-4-6-4-7-11---11-0-4-6-4-7-11---11-0-4-6-4-7-11---11-0-4-6-4-7-11---11---|

G|---------------------------------------------------------------------------|
D|---------------------------------------------------------------------------|
A|--------------9-----------------9-----------------9-----------------9------|
E|-0-4-6-4-7-11---11-0-4-6-4-7-11---11-0-4-6-4-7-11---11-0-4-6-4-7-11---11---|

G|---------------------------------------------------------------------------|
D|---------------------------------------------------------------------------|
A|--------------9-----------------9-----------------9-----------------9------|
E|-0-4-6-4-7-11---11-0-4-6-4-7-11---11-0-4-6-4-7-11---11-0-4-6-4-7-11---11---|

G|---------------------------------------------------------------------------|
D|---------------------------------------------------------------------------|
A|--------------9-----------------9-----------------9-----------------9------|
E|-0-4-6-4-7-11---11-0-4-6-4-7-11---11-0-4-6-4-7-11---11-0-4-6-4-7-11---11---|

OUTRO

G|---------------------------------------------------------------------------|
D|---------------------------------------------------------------------------|
A|-----------7-7-7-7-7-----------7-7-7-7-7-7-7-7-7---------------------------|
E|-7-7-7-7-7-----------7-7-7-7-7---------------------------------------------|
            
Submit corrections


        Dance The Night Away lessons Hard to play? Try these video lessons and learn fast Dance The Night Away lessons
        
↑ Back to top | Tablatures and chords for acoustic guitar and electric guitar, ukulele, drums are parodies/interpretations of the original songs. You may use it for private study, scholarship, research or language learning purposes only