Home » M » Mavericks »

Mavericks - Dance The Night Away Bass

Artists:  A B C D E F G H I J K L M N O P Q R S T U V W X Y Z # 

Dance The Night Away Bass

(ver. 1) Click to play this song!
Mavericks
 Rating:
4/5 (5 votes)
                Mavericks - Dance The Night Away

Not suprised there's no tab for this, its so easy you
don't really need one. Here it is anyway, enjoy.

It's just 2 chords in the entire song, E and B, so the
bass just plays this throughout.

G-------------------------|
D---6-9-6-----------------|
A-7-------(9)---6-9-6-----|
E-------------7-------(7)-|

*Notes in brackets are not played on the record, but if
you want to throw them in for the fun of it, just play
the note before it, and the note itself, twice as fast
as the rest.

Ending

G-------------------------|
D-------------------------|
A-7-7-7-7-7-7-------------| x 2
E-------------7-7-7-7-7-7-|

G-------------------------|
D-------------------------|
A-7-7-7-7-7-7--7-7-7-7----|
E-------------------------|

And thats it! Really fun song to play, especially since
its so easy.
            
Submit corrections

↑ Back to top | Tablatures and chords for acoustic guitar and electric guitar, ukulele, drums are parodies/interpretations of the original songs. You may use it for private study, scholarship, research or language learning purposes only