» » »

Mavericks - Dance The Night Away Tabs

Artists:  A B C D E F G H I J K L M N O P Q R S T U V W X Y Z # 

Dance The Night Away Tabs

(ver. 3) Click to play this song!
Mavericks
 Rating:
4/5 (4 votes)

 Dance The Night Away lessons Tabs too difficult? Try these video lessons and learn fast
 
                Dance The Night Away (Bassline)


Gtr I Bass

 Intro
  Q=140
                 E             B7
 4/4
  Gtr I
  Wx4            Q  Q  Q  Q    Q  Q  Q  Q   4x
|------------||--------------|--------------||
|------------||o-------------|----1--4--1--o||
|------------||o-------2-----|-2-----------o||
|------------||--0--4-----4--|--------------||


   Verse
    E             B7            E             B7
    Q  Q  Q  Q    Q  Q  Q  Q    Q  Q  Q  Q    Q  Q  Q  Q   4x
||--------------|-------------|-------------|--------------||
||o-------------|----1--4--1--|-------------|----1--4--1--o||
||o-------2-----|-2-----------|-------2-----|-2-----------o||
||--0--4-----4--|-------------|-0--4-----4--|--------------||


   Chorus
    E             B7            E             B7
    Q  Q  Q  Q    Q  Q  Q  Q    Q  Q  Q  Q    Q  Q  Q  Q   4x
||--------------|-------------|-------------|--------------||
||o-------------|----1--4--1--|-------------|----1--4--1--o||
||o-------2-----|-2-----------|-------2-----|-2-----------o||
||--0--4-----4--|-------------|-0--4-----4--|--------------||


   Bridge
    E             B7            E             B7
    Q  Q  Q  Q    Q  Q  Q  Q    Q  Q  Q  Q    Q  Q  Q  Q   4x
||--------------|-------------|-------------|--------------||
||o-------------|----1--4--1--|-------------|----1--4--1--o||
||o-------2-----|-2-----------|-------2-----|-2-----------o||
||--0--4-----4--|-------------|-0--4-----4--|--------------||


   Chorus
    E             B7            E             B7
    Q  Q  Q  Q    Q  Q  Q  Q    Q  Q  Q  Q    Q  Q  Q  Q   4x
||--------------|-------------|-------------|--------------||
||o-------------|----1--4--1--|-------------|----1--4--1--o||
||o-------2-----|-2-----------|-------2-----|-2-----------o||
||--0--4-----4--|-------------|-0--4-----4--|--------------||


   Instrumental Break
    E             B7            E             B7
    Q  Q  Q  Q    Q  Q  Q  Q    Q  Q  Q  Q    Q  Q  Q  Q   4x
||--------------|-------------|-------------|--------------||
||o-------------|----1--4--1--|-------------|----1--4--1--o||
||o-------2-----|-2-----------|-------2-----|-2-----------o||
||--0--4-----4--|-------------|-0--4-----4--|--------------||


   Bridge
    E             B7            E             B7
    Q  Q  Q  Q    Q  Q  Q  Q    Q  Q  Q  Q    Q  Q  Q  Q   4x
||--------------|-------------|-------------|--------------||
||o-------------|----1--4--1--|-------------|----1--4--1--o||
||o-------2-----|-2-----------|-------2-----|-2-----------o||
||--0--4-----4--|-------------|-0--4-----4--|--------------||


   Double Chorus
    E             B7            E             B7
    Q  Q  Q  Q    Q  Q  Q  Q    Q  Q  Q  Q    Q  Q  Q  Q   8x
||--------------|-------------|-------------|--------------||
||o-------------|----1--4--1--|-------------|----1--4--1--o||
||o-------2-----|-2-----------|-------2-----|-2-----------o||
||--0--4-----4--|-------------|-0--4-----4--|--------------||


   Coda
    E             B7              E             B7
    Q  Q  Q  Q    Q  Q  Q  Q      Q  Q  Q  Q    Q  Q  Q  Q
||--------------|--------------||-------------|-------------|
||o-------------|----1--4--1--o||-------------|----1--4--1--|
||o-------2-----|-2-----------o||-------2-----|-2-----------|
||--0--4-----4--|--------------||-0--4-----4--|-------------|


    E                B7                 E                Eadd2
    E E E E E Q.     E E E E E Q.       E E E E E Q.     E E E E E E Q
||-----------------|-----------------||----------------|----------------*|
||o---2-2-2-2-2----|----------------o||---2-2-2-2-2----|---2-2-2-2------*|
||o----------------|---2-2-2-2-2----o||----------------|----------------*|
||-----------------|-----------------||----------------|----------------*|


Duration Legend
---------------
W - whole; H - half; Q - quarter; E - 8th; S - 16th; T - 32nd; X - 64th; a - acciaccatura
+ - note tied to previous; . - note dotted; .. - note double dotted
Uncapitalized letters represent notes that are staccato (1/2 duration)
Irregular groupings are notated above the duration line
Duration letters will always appear directly above the note/fret number it represents the
duration for.  Duration letters with no fret number below them represent rests.  Multi-
bar rests are notated in the form Wxn, where n is the number of bars to rest for.  Low
melody durations appear below the staff

Tablature Legend
----------------
 h   - hammer-on
 p   - pull-off
 b   - bend
 pb  - pre-bend
 r   - bend release (if no number after the r, then release immediately)
 /\  - slide into or out of (from/to "nowhere")
 s   - legato slide
 S   - shift slide
n>  - natural harmonic
[n]  - artificial harmonic
n(n) - tapped harmonic
 ~   - vibrato
 tr  - trill
 T   - tap
 TP  - trem. picking
 PM  - palm muting
\n/  - tremolo bar dip; n = amount to dip
 \n  - tremolo bar down
 n/  - tremolo bar up
/n\  - tremolo bar inverted dip
 =   - hold bend; also acts as connecting device for hammers/pulls
 >  - volume swell (louder/softer)
 x   - on rhythm slash represents muted slash
 o   - on rhythm slash represents single note slash

Misc Legend
-----------
 |  - bar
||  - double bar
||o - repeat start
o|| - repeat end
*|  - double bar (ending)
 :  - bar (freetime)
 $  - Segno
 &  - Coda
Tempo markers - E/E./Q/Q./H/H.> = BPM(8/16=s8/s16), where s8 = swing 8ths, s16 = swing 16ths
            
Submit corrections


        Dance The Night Away lessons Hard to play? Try these video lessons and learn fast Dance The Night Away lessons
        
↑ Back to top | Tablatures and chords for acoustic guitar and electric guitar, ukulele, drums are parodies/interpretations of the original songs. You may use it for private study, scholarship, research or language learning purposes only