» » »

Mavericks - Dance The Night Away Tabs

Artists:  A B C D E F G H I J K L M N O P Q R S T U V W X Y Z # 

Dance The Night Away Tabs

(ver. 2) Click to play this song!
Mavericks
 Rating:
4/5 (4 votes)

 Dance The Night Away lessons Tabs too difficult? Try these video lessons and learn fast
 
                Dance The Night Away


Gtr I   Acoustic Rhythm
Gtr II  Trumpet Arranged for Electric
Gtr III Lead

 Intro
  Q=140
  E                 B7                E                 B7
 4/4
  Gtr I
  E E E E E E E E   E E E E E E E E   E E E E E E E E   E E E E E E E E
|-0-0-0-0-0-0-0-0-|-----------------|-0-0-0-0-0-0-0-0-|------------------|
|-0-0-0-0-0-0-0-0-|-0-0-0-0-0-0-0-0-|-0-0-0-0-0-0-0-0-|-0-0-0-0-0-0-0-0--|
|-1-1-1-1-1-1-1-1-|-2-2-2-2-2-2-2-2-|-1-1-1-1-1-1-1-1-|-2-2-2-2-2-2-2-2--|
|-2-2-2-2-2-2-2-2-|-1-1-1-1-1-1-1-1-|-2-2-2-2-2-2-2-2-|-1-1-1-1-1-1-1-1--|
|-----------------|-2-2-2-2-2-2-2-2-|-----------------|-2-2-2-2-2-2-2-2--|
|-----------------|-----------------|-----------------|------------------|


  E                          B7
  E E  E  E  E E    E    E    E E    E    E  E E      E     E
|-0-0--0--0--0-0----0----0-|-------------------------------------|
|-0-0--0--0--0-0----0----0-|--0-0----0----0--0-0------0-----0----|
|-1-1--1--1--1-1----1----1-|--2-2----2----2--2-2------2-----2----|
|-2-2--2--2--2-2----2----2-|--1-1----1----1--1-1------1-----1----|
|--------------------------|--2-2----2----2--2-2------2-----2----|
|--------------------------|-------------------------------------|
|
| Gtr II
|            |----3----|      |----3----|    |-3--|   |---3----|
| Q    E  E  Q    Q    Q      Q    Q    Q    Q    E  +E   E    E
|--------16-19---19---19---|-19---19---19---19---19-(19)-19---21-|
|-----17-------------------|-------------------------------------|
|--------------------------|-------------------------------------|
|--------------------------|-------------------------------------|
|--------------------------|-------------------------------------|
|--------------------------|-------------------------------------|


  E                         B7
   E E E E  E E    E    E    E E    E    E  E E    E    E
|--0-0-0-0--0-0----0----0-|--------------------------------|
|--0-0-0-0--0-0----0----0-|--0-0----0----0--0-0----0----0--|
|--1-1-1-1--1-1----1----1-|--2-2----2----2--2-2----2----2--|
|--2-2-2-2--2-2----2----2-|--1-1----1----1--1-1----1----1--|
|-------------------------|--2-2----2----2--2-2----2----2--|
|-------------------------|--------------------------------|
|
|           |----3----|      |----3----|    |----3----|
|  Q   Q    Q    Q    Q      Q    Q    Q    Q    Q    Q
|-19-------19---19---19---|-19---17---17---17---16---16----|
|-------------------------|--------------------------------|
|-------------------------|--------------------------------|
|-------------------------|--------------------------------|
|-------------------------|--------------------------------|
|-------------------------|--------------------------------|


  E                           B7
   E E E E  E  E        E E    E E    E    E  E E    E    E
|--0-0-0-0--0--0--------0-0-|-------------------------------|
|--0-0-0-0--0--0--------0-0-|--0-0----0----0--0-0----0----0-|
|--1-1-1-1--1--1--------1-1-|--2-2----2----2--2-2----2----2-|
|--2-2-2-2--2--2--------2-2-|--1-1----1----1--1-1----1----1-|
|---------------------------|--2-2----2----2--2-2----2----2-|
|---------------------------|-------------------------------|
|
|                              |----3----|    |----3----|
|  Q   Q    E.    T  T  Q      Q    Q    Q    Q    Q    Q
|-16------------------------|------11---14---17---16---14---|
|----------17----16-15-14---|-12----------------------------|
|---------------------------|-------------------------------|
|---------------------------|-------------------------------|
|---------------------------|-------------------------------|
|---------------------------|-------------------------------|


  E                           B7
   E E E E  E  E        E E    E E E E E E E E
|--0-0-0-0--0--0--------0-0-|--------------------|
|--0-0-0-0--0--0--------0-0-|--0-0-0-0-0-0-0-0---|
|--1-1-1-1--1--1--------1-1-|--2-2-2-2-2-2-2-2---|
|--2-2-2-2--2--2--------2-2-|--1-1-1-1-1-1-1-1---|
|---------------------------|--2-2-2-2-2-2-2-2---|
|---------------------------|--------------------|
|
|  Q   Q    E.    T  T  Q      W
|-16------------------------|--------------------|
|----------17----16-15-14---|-12-----------------|
|---------------------------|--------------------|
|---------------------------|--------------------|
|---------------------------|--------------------|
|---------------------------|--------------------|


   Verse
    E                 B7                E                 B7
    E E E E E E E E   E E E E E E E E   E E E E E E E E   E E E E E E E E  4x
||--0-0-0-0-0-0-0-0-|-----------------|-0-0-0-0-0-0-0-0-|------------------||
||o-0-0-0-0-0-0-0-0-|-0-0-0-0-0-0-0-0-|-0-0-0-0-0-0-0-0-|-0-0-0-0-0-0-0-0-o||
||--1-1-1-1-1-1-1-1-|-2-2-2-2-2-2-2-2-|-1-1-1-1-1-1-1-1-|-2-2-2-2-2-2-2-2--||
||--2-2-2-2-2-2-2-2-|-1-1-1-1-1-1-1-1-|-2-2-2-2-2-2-2-2-|-1-1-1-1-1-1-1-1--||
||o-----------------|-2-2-2-2-2-2-2-2-|-----------------|-2-2-2-2-2-2-2-2-o||
||------------------|-----------------|-----------------|------------------||


   Chorus
    E                 B7                E                 B7
    E E E E E E E E   E E E E E E E E   E E E E E E E E   E E E E E E E E  4x
||--0-0-0-0-0-0-0-0-|-----------------|-0-0-0-0-0-0-0-0-|------------------||
||o-0-0-0-0-0-0-0-0-|-0-0-0-0-0-0-0-0-|-0-0-0-0-0-0-0-0-|-0-0-0-0-0-0-0-0-o||
||--1-1-1-1-1-1-1-1-|-2-2-2-2-2-2-2-2-|-1-1-1-1-1-1-1-1-|-2-2-2-2-2-2-2-2--||
||--2-2-2-2-2-2-2-2-|-1-1-1-1-1-1-1-1-|-2-2-2-2-2-2-2-2-|-1-1-1-1-1-1-1-1--||
||o-----------------|-2-2-2-2-2-2-2-2-|-----------------|-2-2-2-2-2-2-2-2-o||
||------------------|-----------------|-----------------|------------------||


   Bridge
    E                 B7                E                 B7
    E E E E E E E E   E E E E E E E E   E E E E E E E E   E E E E E E E E  4x
||--0-0-0-0-0-0-0-0-|-----------------|-0-0-0-0-0-0-0-0-|------------------||
||o-0-0-0-0-0-0-0-0-|-0-0-0-0-0-0-0-0-|-0-0-0-0-0-0-0-0-|-0-0-0-0-0-0-0-0-o||
||--1-1-1-1-1-1-1-1-|-2-2-2-2-2-2-2-2-|-1-1-1-1-1-1-1-1-|-2-2-2-2-2-2-2-2--||
||--2-2-2-2-2-2-2-2-|-1-1-1-1-1-1-1-1-|-2-2-2-2-2-2-2-2-|-1-1-1-1-1-1-1-1--||
||o-----------------|-2-2-2-2-2-2-2-2-|-----------------|-2-2-2-2-2-2-2-2-o||
||------------------|-----------------|-----------------|------------------||


   Chorus
    E                 B7                E                 B7
    E E E E E E E E   E E E E E E E E   E E E E E E E E   E E E E E E E E  4x
||--0-0-0-0-0-0-0-0-|-----------------|-0-0-0-0-0-0-0-0-|------------------||
||o-0-0-0-0-0-0-0-0-|-0-0-0-0-0-0-0-0-|-0-0-0-0-0-0-0-0-|-0-0-0-0-0-0-0-0-o||
||--1-1-1-1-1-1-1-1-|-2-2-2-2-2-2-2-2-|-1-1-1-1-1-1-1-1-|-2-2-2-2-2-2-2-2--||
||--2-2-2-2-2-2-2-2-|-1-1-1-1-1-1-1-1-|-2-2-2-2-2-2-2-2-|-1-1-1-1-1-1-1-1--||
||o-----------------|-2-2-2-2-2-2-2-2-|-----------------|-2-2-2-2-2-2-2-2-o||
||------------------|-----------------|-----------------|------------------||


 Trumpet Solo
  E                     B7
  E  E  E  E  E E E E   E  E  E  E  E E E E
|-0--0--0--0--0-0-0-0-|---------------------|
|-0--0--0--0--0-0-0-0-|-0--0--0--0--0-0-0-0-|
|-1--1--1--1--1-1-1-1-|-2--2--2--2--2-2-2-2-|
|-2--2--2--2--2-2-2-2-|-1--1--1--1--1-1-1-1-|
|---------------------|-2--2--2--2--2-2-2-2-|
|---------------------|---------------------|
|
| Gtr II
| E  E  E  E  E E Q     E  E  E  E  E E Q
|------12-16-19-------|---------------------|
|---12----------------|---------19-19-------|
|---------------------|------20-------------|
|---------------------|---21----------------|
|---------------------|---------------------|
|---------------------|---------------------|


  E                           B7
  E  E  E  E  E E    E    E    E E    E    E  E E      E     E
|-0--0--0--0--0-0----0----0-|-------------------------------------|
|-0--0--0--0--0-0----0----0-|--0-0----0----0--0-0--
            
Submit corrections


        Dance The Night Away lessons Hard to play? Try these video lessons and learn fast Dance The Night Away lessons
        
↑ Back to top | Tablatures and chords for acoustic guitar and electric guitar, ukulele, drums are parodies/interpretations of the original songs. You may use it for private study, scholarship, research or language learning purposes only