Home » M » Maroon 5 »

Maroon 5 - Payphone Bass

Artists:  A B C D E F G H I J K L M N O P Q R S T U V W X Y Z # 

Payphone Bass

(ver. 3) Click to play this song!
Maroon 5
 Rating:
4/5 (4 votes)
                -----------------------------------------------------------------------------
                             Payphone - Maroon 5
-----------------------------------------------------------------------------

Tuning: Standard EADG

This the whole song: 
G|---------|---------|-------------|---------|
D|---------|---------|-------------|---------|
A|-7-7-7-7-|---------|-11-11-11-11-|-9-9-9-9-|
E|---------|-7-7-7-7-|-------------|---------|
*Note: the 11 shown is a eleven*

(Optional)

At the rap part you play this:
G|--------|--------|-----------|--------|
D|--------|--------|-----------|--------|
A|-7-7-7--|--------|-11-11-11--|-9-9-9--|
E|--------|-7-7-7--|-----------|--------|
*Note: again, the 11 shown is a eleven*

Rate what it deserves :)
            
Submit corrections

↑ Back to top | Tablatures and chords for acoustic guitar and electric guitar, ukulele, drums are parodies/interpretations of the original songs. You may use it for private study, scholarship, research or language learning purposes only