Home » M » Maroon 5 »

Maroon 5 - Payphone Bass

Artists:  A B C D E F G H I J K L M N O P Q R S T U V W X Y Z # 

Payphone Bass

(ver. 1) Click to play this song!
Maroon 5
 Rating:
4/5 (4 votes)
                Payphone
Maroon 5

Chorus1 (where have the times gone)
G|--------------------------------------------------------------------|
D|--------------------------------------------------------------------|
A|-7-7-7-7-7-7-7-7----------------------------------------------------|
E|-----------------7-7-7-7-7-7-7-7--4-4-4-4-4-4-4-4--2-2-2-2-2-2-2-2--|

Verse (you say its too late to make it)
G|----------------------------------------------------|
D|----------------------------------------------------|
A|-7--7--7--7-----------------------------------------|
E|------------7--7--7--7\---4--4--4--4\---2--2--2--2/-|

Prechorus 

G|----------------------------------------------------|
D|----------------------------------------------------|
A|-7--7--7--7-----------------------------------------|
E|------------7--7--7--7\---4--4--4--4\---2--2--2--2/-|

G|----------------------------------------------|
D|----------------------------------------------|
A|-7--7--7--7-----------------------------------|
E|------------7--7--7--7\---4--4--4--4\---2--2/-|

Chorus2 
G|----------------------------------------------------------------------|
D|----------------------------------------------------------------------|
A|-7-7-7-7-7-7-7-7------------------------------------------------------|4x
E|-----------------7-7-7-7-7-7-7-7\--4-4-4-4-4-4-4-4\--2-2-2-2-2-2-2-2/-|

Verse2  
G|-----------------------------------------------|
D|-----------------------------------------------|
A|-7~--------------------------------------------|
E|-------7--7--7--7\---4--4--4--4\---2--2--2--2/-|

G|---------------------------------------------------|
D|---------------------------------------------------|
A|-7--7--7--7----------------------------------------|
E|------------7--7--7--7\---4--4--4--4\---2--2--2/14-|

Repeat prechorus
Repeat chorus2

Rap (wiz Khalifa)
G|--------------------------------------|
D|--------------------------------------|
A|-7--7--7------------------------------|4x
E|----------7--7--7---4--4--4---2--2--2-|

Repeat chorus2
            
Submit corrections

↑ Back to top | Tablatures and chords for acoustic guitar and electric guitar, ukulele, drums are parodies/interpretations of the original songs. You may use it for private study, scholarship, research or language learning purposes only