» » »

Maroon 5 - One More Night Bass

Artists:  A B C D E F G H I J K L M N O P Q R S T U V W X Y Z # 

One More Night Bass

(ver. 1) Click to play this song!
Maroon 5
 Rating:
4/5 (4 votes)

 One More Night lessons Tabs too difficult? Try these video lessons and learn fast
 
                ne More Night
Maroon 5

Verse1 
G|----------|----------|----------|-----|-15---------------|
D|----------|----------|----------|-----|----13--15--------|
A|----------|----------|----------|-----|-----------13-----|
E|-1/----6\-|-1/----6\-|-1/----6\-|-1/--|--------------13\-|

Chorus1
G|------------------|----------------------|-15---------------|
D|------------------|----------------------|----13--15--------|
A|-8-8-8-8--6-6-----|----8-8-8-8--6-6------|-----------13-----|2X
E|-------------6-6\-|-1/--------------6-6\-|--------------13\-|

Post chorus1
G|-------|-15---------------------------------|----------------------|
D|-------|----13--15--------------------------|----------------------|
A|-pause-|-----------13-----8-8-8-8--6-6------|----8-8-8-8--6-6------|
E|-------|--------------13\--------------6-6\-|-1/--------------6-6\-|

Verse2 
G|----------------------|   |-15---------------|
D|----------------------|   |----13--15--------|
A|----8-8-8-8--6-6------|4x |-----------13-----|
E|-1/--------------6-6\-|   |--------------13\-|    repeat chorus

Post chorus2
G|-------|-15---------------------------------|----------------------|
D|-------|----13--15--------------------------|----------------------|
A|-pause-|-----------13-----8-8-8-8--6-6------|----8-8-8-8--6-6------|
E|-------|--------------13\--------------6-6\-|-1/--------------6-6\-|

G|-15---------------------------------|    |----------------------|
D|----13--15--------------------------|    |----------------------|
A|-----------13-----8-8-8-8--6-6------|    |----8-8-8-8--6-6------|3x
E|--------------13\--------------6-6\-|    |-1/--------------6-6\-|

G|-15---------------|
D|----13--15--------|
A|-----------13-----|
E|--------------13\-|

Chorus2 
G|-------|--------------------|
D|-------|--------------------|
A|-pause-|--------------------|
E|-------|-1~---1/\--1/\--1/\-|

Last part
G|-15---------------------------------|----------------------|
D|----13--15--------------------------|----------------------|
A|-----------13-----8-8-8-8--6-6------|----8-8-8-8--6-6------| till fade
E|--------------13\--------------6-6\-|-1/--------------6-6\-|
            
Submit corrections


        One More Night lessons Hard to play? Try these video lessons and learn fast One More Night lessons
        
↑ Back to top | Tablatures and chords for acoustic guitar and electric guitar, ukulele, drums are parodies/interpretations of the original songs. You may use it for private study, scholarship, research or language learning purposes only