» » »

Maroon 5 - Payphone Tabs

Artists:  A B C D E F G H I J K L M N O P Q R S T U V W X Y Z # 

Payphone Tabs

(ver. 7) Click to play this song!
Maroon 5
 Rating:
4.3/5 (22 votes)

 Payphone lessons Tabs too difficult? Try these video lessons and learn fast
 
                [INTRO]
0.00 - 0.18
"I'm at a payphone trying to call home..."
e|-3--------------------|-3--------------------|-3--------------------|-2--------------------|
B|-3--------------------|-3--------------------|-3--------------------|-3--------------------|
G|-0--------------------|-0--------------------|-0--------------------|-2--------------------| x2
D|-2--------------------|-0--------------------|-2--------------------|-0--------------------|
A|-3--------------------|-2--------------------|-2--------------------|----------------------|
E|----------------------|-3--------------------|----------------------|----------------------|

[VERSE]
0.19 - 0.35
"Yeah I, I know it's hard to remember..."
e|-3--------------------|-3--------------------|-3--------------------|-2--------------------|
B|-3--------------------|-3--------------------|-3--------------------|-3--------------------|
G|-0--------------------|-0--------------------|-0--------------------|-2--------------------| x2
D|-2--------------------|-0--------------------|-2--------------------|-0--------------------|
A|-3--------------------|-2--------------------|-2--------------------|----------------------|
E|----------------------|-3--------------------|----------------------|----------------------|

[PRE-CHORUS]
0.36 - 0.53
"I've wasted my nights, you turned out the lights..."
e|-3------------------3-|-3------------------3-|-3------------------3-|-2------------------3-|
B|-3------------------3-|-3------------------3-|-3------------------3-|-3------------------3-|
G|-0------------------0-|-0------------------0-|-0------------------0-|-2------------------2-| x2
D|-2------------------2-|-0------------------0-|-2------------------2-|-0------------------0-|
A|-3------------------3-|-2------------------2-|-2------------------2-|----------------------|
E|----------------------|-3------------------3-|----------------------|----------------------|

[CHORUS a]
0.54 - 1.09 
"I'm at a payphone trying to call home..."
e|-3---3---3--3--3--3---|-3---3---3--3--3--3-3-|-3---3---3--3--3--3---|-2---2---2--2--2--2-3-|
B|-3---3---3--3--3--3---|-3---3---3--3--3--3-3-|-3---3---3--3--3--3---|-3---3---3--3--3--3-3-|
G|-0---0---0--0--0--0---|-0---0---0--0--0--0-0-|-0---0---0--0--0--0---|-2---2---2--2--2--2-2-| x2
D|-2---2---2--2--2--2---|-0---0---0--0--0--0-0-|-2---2---2--2--2--2---|-0---0---0--0--0--0-0-|
A|-3---3---3--3--3--3---|-2---2---2--2--2--2-2-|-2---2---2--2--2--2---|----------------------|
E|----------------------|-3---3---3--3--3--3-3-|----------------------|----------------------|
   D   D   U  D  U  D     D   D   U  D  U  D U   D   D   U  D  U  D     D   D   U  D  U  D U 

[CHORUS b]
1.10 - 1.28
"If happy ever after did exist, I would still be holding you like this..."
e|-3--3-x-3--3-x-3--3-3-|-3--3-x-3--3-x-3--3-3-|-3--3-x-3--3-x-3--3-3-|-2--2-x-2--2-x-2--2-3-|
B|-3--3-x-3--3-x-3--3-3-|-3--3-x-3--3-x-3--3-3-|-3--3-x-3--3-x-3--3-3-|-3--3-x-3--3-x-3--3-3-|
G|-0--0-x-0--0-x-0--0-0-|-0--0-x-0--0-x-0--0-0-|-0--0-x-0--0-x-0--0-0-|-2--2-x-2--2-x-2--2-2-| x2
D|-2--2-x-2--2-x-2--2-2-|-0--0-x-0--0-x-0--0-0-|-2--2-x-2--2-x-2--2-2-|-0--0-x-0--0-x-0--0-0-|
A|-3--3-x-3--3-x-3--3-3-|-2--2-x-2--2-x-2--2-2-|-2--2-x-2--2-x-2--2-2-|------x------x--------|
E|------x------x--------|-3--3-x-3--3-x-3--3-3-|------x------x--------|------x------x--------|
   D  U D D  U D D  D U   D  U D D  U D D  D U   D  U D D  U D D  D U   D  U D D  U D D  D U

[VERSE]
1.29 - 1.46
"You turned your back on tomorrow, cause you forgot yesterday.."
e|-3--------------------|-3--------------------|-3--------------------|-2--------------------|
B|-3--------------------|-3--------------------|-3--------------------|-3--------------------|
G|-0--------------------|-0--------------------|-0--------------------|-2--------------------| x2
D|-2--------------------|-0--------------------|-2--------------------|-0--------------------|
A|-3--------------------|-2--------------------|-2--------------------|----------------------|
E|----------------------|-3--------------------|----------------------|----------------------|

[PRE-CHORUS]
1.47 - 2.02
"I've wasted my nights, you turned out the lights..."
e|-3------------------3-|-3------------------3-|-3------------------3-|-2------------------3-|
B|-3------------------3-|-3------------------3-|-3------------------3-|-3------------------3-|
G|-0------------------0-|-0------------------0-|-0------------------0-|-2------------------2-| x2
D|-2------------------2-|-0------------------0-|-2------------------2-|-0------------------0-|
A|-3------------------3-|-2------------------2-|-2------------------2-|----------------------|
E|----------------------|-3------------------3-|----------------------|----------------------|

[CHORUS a]
2.03 - 2.19
"I'm at a payphone trying to call home..."
e|-3---3---3--3--3--3---|-3---3---3--3--3--3-3-|-3---3---3--3--3--3---|-2---2---2--2--2--2-3-|
B|-3---3---3--3--3--3---|-3---3---3--3--3--3-3-|-3---3---3--3--3--3---|-3---3---3--3--3--3-3-|
G|-0---0---0--0--0--0---|-0---0---0--0--0--0-0-|-0---0---0--0--0--0---|-2---2---2--2--2--2-2-| x2
D|-2---2---2--2--2--2---|-0---0---0--0--0--0-0-|-2---2---2--2--2--2---|-0---0---0--0--0--0-0-|
A|-3---3---3--3--3--3---|-2---2---2--2--2--2-2-|-2---2---2--2--2--2---|----------------------|
E|----------------------|-3---3---3--3--3--3-3-|----------------------|----------------------|
   D   D   U  D  U  D     D   D   U  D  U  D U   D   D   U  D  U  D     D   D   U  D  U  D U 

[CHORUS b]
2.20 - 2.38
"If happy ever after did exist, I would still be holding you like this..."
e|-3--3-x-3--3-x-3--3-3-|-3--3-x-3--3-x-3--3-3-|-3--3-x-3--3-x-3--3-3-|-2--2-x-2--2-x-2--2-3-|
B|-3--3-x-3--3-x-3--3-3-|-3--3-x-3--3-x-3--3-3-|-3--3-x-3--3-x-3--3-3-|-3--3-x-3--3-x-3--3-3-|
G|-0--0-x-0--0-x-0--0-0-|-0--0-x-0--0-x-0--0-0-|-0--0-x-0--0-x-0--0-0-|-2--2-x-2--2-x-2--2-2-| x2
D|-2--2-x-2--2-x-2--2-2-|-0--0-x-0--0-x-0--0-0-|-2--2-x-2--2-x-2--2-2-|-0--0-x-0--0-x-0--0-0-|
A|-3--3-x-3--3-x-3--3-3-|-2--2-x-2--2-x-2--2-2-|-2--2-x-2--2-x-2--2-2-|------x------x--------|
E|------x------x--------|-3--3-x-3--3-x-3--3-3-|------x------x--------|------x------x--------|
   D  U D D  U D D  D U   D  U D D  U D D  D U   D  U D D  U D D  D U   D  U D D  U D D  D U

[RAP BREAKDOWN]
2.39 - 3.11
e|-3--------------------|-3--------------------|-3--------------------|-2--------------------|
B|-3--------------------|-3--------------------|-3--------------------|-3--------------------|
G|-0--------------------|-0--------------------|-0--------------------|-2--------------------| x4
D|-2--------------------|-0--------------------|-2--------------------|-0--------------------|
A|-3--------------------|-2--------------------|-2--------------------|----------------------|
E|----------------------|-3--------------------|----------------------|----------------------|

[CHORUS a]
3.12 - 3.28
"I'm at a payphone trying to call home..."
e|-3---3---3--3--3--3---|-3---3---3--3--3--3-3-|-3---3---3--3--3--3---|-2---2---2--2--2--2-3-|
B|-3---3---3--3--3--3---|-3---3---3--3--3--3-3-|-3---3---3--3--3--3---|-3---3---3--3--3--3-3-|
G|-0---0---0--0--0--0---|-0---0---0--0--0--0-0-|-0---0---0--0--0--0---|-2---2---2--2--2--2-2-| x2
D|-2---2---2--2--2--2---|-0---0---0--0--0--0-0-|-2---2---2--2--2--2---|-0---0---0--0--0--0-0-|
A|-3---3---3--3--3--3---|-2---2---2--2--2--2-2-|-2---2---2--2--2--2---|----------------------|
E|----------------------|-3---3---3--3--3--3-3-|----------------------|----------------------|
   D   D   U  D  U  D     D   D   U  D  U  D U   D   D   U  D  U  D     D   D   U  D  U  D U 

[CHORUS b]
3.29 - 3.49
"If happy ever after did exist, I would still be holding you like this..."
e|-3--3-x-3--3-x-3--3-3-|-3--3-x-3--3-x-3--3-3-|-3--3-x-3--3-x-3--3-3-|-2--2-x-2--2-x-2--2-3-|
B|-3--3-x-3--3-x-3--3-3-|-3--3-x-3--3-x-3--3-3-|-3--3-x-3--3-x-3--3-3-|-3--3-x-3--3-x-3--3-3-|
G|-0--0-x-0--0-x-0--0-0-|-0--0-x-0--0-x-0--0-0-|-0--0-x-0--0-x-0--0-0-|-2--2-x-2--2-x-2--2-2-| x2
D|-2--2-x-2--2-x-2--2-2-|-0--0-x-0--0-x-0--0-0-|-2--2-x-2--2-x-2--2-2-|-0--0-x-0--0-x-0--0-0-|
A|-3--3-x-3--3-x-3--3-3-|-2--2-x-2--2-x-2--2-2-|-2--2-x-2--2-x-2--2-2-|------x------x--------|
E|------x------x--------|-3--3-x-3--3-x-3--3-3-|------x------x--------|------x------x--------|
   D  U D D  U D D  D U   D  U D D  U D D  D U   D  U D D  U D D  D U   D  U D D  U D D  D U

[END ON]
3.50
e|-3--------------------|
B|-3--------------------|
G|-0--------------------| x1
D|-2--------------------|
A|-3--------------------|
E|----------------------|            
Submit corrections


        Payphone lessons Hard to play? Try these video lessons and learn fast Payphone lessons
        
↑ Back to top | Tablatures and chords for acoustic guitar and electric guitar, ukulele, drums are parodies/interpretations of the original songs. You may use it for private study, scholarship, research or language learning purposes only