» » »

Maroon 5 - Payphone Tabs

Artists:  A B C D E F G H I J K L M N O P Q R S T U V W X Y Z # 

Payphone Tabs

(ver. 8) Click to play this song!
Maroon 5
 Rating:
4.3/5 (29 votes)

 Payphone lessons Tabs too difficult? Try these video lessons and learn fast
 
                [intro/Chorus]
E|--------3/5*-----3*--|---3-2---------------|---------------------|
B|--0-1-3-3/5*---------|-------3-1*--1*-1-0--|-1-0---0-------------|
G|--0------------------|---------0---------0-|----2-0--2*----------|
D|-----------------0---|-------------------0-|----0----0-----------|
A|--3------------------|---------3-----------|---------------------|
E|---------------------|---------------------|---------------------|x2

[verse 1]
E|---------------------|---------------------|------------------0--|
B|-------3-3-3-0-0-0---|--3-3-3-0-0-0----3-3-|3-0-0-0-----3-3-3----|
G|0---0--0-0-0-0-0-0-2-|--0-0-0-0-0-0----0-0-|0-0-0-0-2---0-0-0----|
D|0-x-0-x------------0-|x-------------x------|--------0-x----------|
A|--x---x--------------|x-------------x------|----------x----------|
E|--x---x--------------|x-------------x------|----------x----------|
 
E|---------------------|---------------------|---------------------|
B|0-0----3-3-3-0-0-0---|--3-3-3-0-0-0---3-3-3|-0-0-0---1-0--1-0--0-|
G|0-0----0-0-0-0-0-0-2-|--0-0-0-0-0-0---0-0-0|-0-0-0-2----0----2-0-|
D|-----x-------------0-|x-------------x------|---------------------|
A|-----x---------------|x-------------x------|---------------------|
E|-----x---------------|x-------------x------|---------------------|
 
[pre-chorus]
E|---------------------|---------------------|---------------------|
B|0-0-0---0-0-0-0--0-0-|0-0-----------3-0----|0-0-0---0-0-0-0---0-0|
G|0-----2-0-0----2-0-0-|-----4-2-2-2-2--0----|0-----2-0-0-----2-0-0|
D|------0--------0-----|---------------------|------0---------0----|
A|---------------------|---------------------|---------------------|
E|---------------------|---------------------|---------------------|

E|---------------------|
B|0-0------------------|
G|----4-2*-------------| 
D|---------------------|
A|---------------------|
E|---------------------|

E|--------3/5*-----3*--|---3-2---------------|---------------------|
B|--0-1-3-3/5*---------|-------3-1*--1*-1-0--|-1-0---0-------------|
G|--0------------------|---------0---------0-|----2-0--2*----------|
D|-----------------0---|-------------------0-|----0----0-----------|
A|--3------------------|---------3-----------|---------------------|
E|---------------------|---------------------|---------------------|

E|--------3/5*-----3*--|---3-2---------------|---------------------|
B|--0-1-3-3/5*---------|-------3-1*--1*-1-0--|-1-0---0------0-1-0--|
G|--0------------------|---------0---------0-|----2-0--2*---0---0-2|
D|-----------------0---|-------------------0-|----0----0-----------|
A|--3------------------|---------3-----------|---------------------|
E|---------------------|---------------------|---------------------|
 
E|---------------------|---------------------|---------------------|
B|--------0--0-1-0-----|----3----0-1-0-------|----0*--0-1-0--------|
G|2-0-0-2-0--0---0-2-2-|0-0---2*-0---0-2-2-0-|0-2-0*--0---0-2-2-0-0|
D|--0-0----------------|0-0---0------------0-|0-----------------0-0|
A|---------------------|---------------------|---------------------|
E|---------------------|---------------------|---------------------|

E|---------------------|
B|-3---------0-1-0-----|
G|---2*----0-------2-0*|
D|---0-----------------|
A|---------------------|
E|---------------------|            
Submit corrections


        Payphone lessons Hard to play? Try these video lessons and learn fast Payphone lessons
        
↑ Back to top | Tablatures and chords for acoustic guitar and electric guitar, ukulele, drums are parodies/interpretations of the original songs. You may use it for private study, scholarship, research or language learning purposes only