Home » M » Mac Demarco »

Mac Demarco - Jonnys Odyssey Bass

Artists:  A B C D E F G H I J K L M N O P Q R S T U V W X Y Z # 

Jonnys Odyssey Bass

(ver. 2) Click to play this song!
Mac Demarco
 Rating:
4.3/5 (24 votes)
                [Intro]
 
(listen to the song to know where to come in)
G|--------------------------------|
D|--------------------------------|
A|--------------------------------| Repeat x3
E|-9-9-9---6-6-----6-6-6---4--2---|
 
 
[Verse 1]
 
G|-------------------------------------------------------------|
D|-------------------------------------------------------------| repeat x1
A|-------------------------------------------------------------|
E|2-2--2--0-2-0--2-2--2--0-2-0--4-4--4--4--4\--2-2--2--0-2-0---|
 
 
[Chorus]
 
(same as intro)
G|--------------------------------|
D|--------------------------------|
A|--------------------------------| Repeat x3
E|-9-9-9---6-6-----6-6-6---4--2---|
 
 
[Outro]
 
G|--------------------------------------------------------------|
D|--------------------------------------------------------------|
A|--------------------------------------------------------------| repeat x3 (until end of the song)
E|-2-2--2--0-2-0--2-2--2--0-2-0--4-4--4--4--4\--2-2--2--0-2-0---|
            
Submit corrections

↑ Back to top | Tablatures and chords for acoustic guitar and electric guitar, ukulele, drums are parodies/interpretations of the original songs. You may use it for private study, scholarship, research or language learning purposes only