» » »

Lordi - Blood Red Sandman Tabs

Artists:  A B C D E F G H I J K L M N O P Q R S T U V W X Y Z # 

Blood Red Sandman Tabs

(ver. 3) Click to play this song!
Lordi
 Rating:
3.6/5 (7 votes)

 Blood Red Sandman lessons Tabs too difficult? Try these video lessons and learn fast
 
                Lordi- Blood Red Sandman

*/ = Eighth Note Rest
|| = Repeat
P.M. = Palm Mute


INTRO

e|---------------------------------------||
B|---------------------------------------||
G|---------------------------------------||
D|------3-5-3-1-3-5-------3----3-1-3-5---||
A|--5-5-3-5-3-1-3-5---5-5-3-*/-3-1-3-5---||
E|--3-3---------------3-3----------------||

e|-------------------------------|
B|-------------------------------|
G|-------------------------------|
D|------3-5-3-1-3-5---------3-5--|
A|--5-5-3-5-3-1-3-5-----5-5-3-5--|
E|--3-3-----------------3-3------|

VERSE

P.M.[-----------------------------------------------------|
e||-------------------------------------------------------|
B||-------------------------------------------------------|
G||-------------------------------------------------------|
D||-----------------------------------10-8-5------4-------|
A||--5-5-5-5-5-5-5-5-5-5-5-5-5-5-5-5--8--6-3--1-4---6-----|
E||--3-3-3-3-3-3-3-3-3-3-3-3-3-3-3-3----------------------|

PRE CHORUS
P.M.[---------------------------------|
e|------------------------------------|
B|------------------------------------|
G|------------------------------------|
D|------------------------------------|
A|--6-6-6-6-6-6-6-6-8-8-8-8-8-8-8-8---|
E|--4-4-4-4-4-4-4-4-6-6-6-6-6-6-6-6---|

P.M.[-------------------------------------------------|
e|----------------------------------------------------|
B|----------------------------------------------------|
G|----------------------------------------------------|
D|----------------------------------------------------|
A|--10-10-10-10-10-10-10-10-10-10-10-10-10-10-10-10---|
E|--7--7--7--7--7--7--7--7--8--8--8--8--8--8--8--8----|

P.M.[---------------------------------|
e|------------------------------------|
B|------------------------------------|
G|------------------------------------|
D|------------------------------------|
A|--6-6-6-6-6-6-6-6-8-8-8-8-8-8-8-8---|
E|--4-4-4-4-4-4-4-4-6-6-6-6-6-6-6-6---|

P.M.[---------------------------------|
e|------------------------------------|
B|------------------------------------|
G|------------------------------------|
D|------------------------------------|
A|10-10-10-10-10-10-10-10--6-6--6-4---|
E|-7--7--7--7--7--7--7--7--4-4--4-2---|

CHORUS
  (Play along to lyrics)
e||-----------------------------------------|----------------------------||
B||-----------------------------------------|----------------------------||
G||-----------------------------------------|----------------------------||
D||--10--10-10---6--6-6--8--8-8--10--10-10--|-10-10--6-6--8-8--10-10-10--||
A||--8----8--8---4--4-4--6--6-6---8---8--8--|--8--8--4-4--6-6---8--8--8--||
E||-----------------------------------------|----------------------------||

(Bit after chorus)
e|------------|
B|------------|
G|------------|
D|--6-6--6-4--|
A|--4-4--4-2--|
E|------------|

VERSE
e|--------------------------------------|
B|--------------------------------------|
G|--------------------------------------|
D|------3-5-3-1-3-5-------3-----3-1-3-5-|
A|--5-5-3-5-3-1-3-5--5-5--3-*/--3-1-3-5-|
E|--3-3--------------3-3----------------|

e|---------------------------------------------------------------------------------|
B|---------------------------------------------------------------------------------|
G|---------------------------------------------------------------------------------|
D|------3-5-3-1-3-5---------3-5----------------------------------------------------|
A|--5-5-3-5-3-1-3-5-----5-5-3-5----------------------------------------------------|
E|--3-3-----------------3-3--------------------------------------------------------|
                                                                            P.M.[--|
e||--------------------------------------------------------------------------------|
B||--------------------------------------------------------------------------------|
G||--------------------------------------------------------------------------------|
D||-----------------------------------10-8-5------4--------------------------------|
A||--5-5-5-5-5-5-5-5-5-5-5-5-5-5-5-5--8--6-3--1-4---6------------------------------|
E||--3-3-3-3-3-3-3-3-3-3-3-3-3-3-3-3-----------------------------------------------|

PRE CHORUS
P.M.[---------------------------------|
e|------------------------------------|
B|------------------------------------|
G|------------------------------------|
D|------------------------------------|
A|--6-6-6-6-6-6-6-6-8-8-8-8-8-8-8-8---|
E|--4-4-4-4-4-4-4-4-6-6-6-6-6-6-6-6---|

P.M.[-------------------------------------------------|
e|----------------------------------------------------|
B|----------------------------------------------------|
G|----------------------------------------------------|
D|----------------------------------------------------|
A|--10-10-10-10-10-10-10-10-10-10-10-10-10-10-10-10---|
E|--7--7--7--7--7--7--7--7--8--8--8--8--8--8--8--8----|

P.M.[---------------------------------|
e|------------------------------------|
B|------------------------------------|
G|------------------------------------|
D|------------------------------------|
A|--6-6-6-6-6-6-6-6-8-8-8-8-8-8-8-8---|
E|--4-4-4-4-4-4-4-4-6-6-6-6-6-6-6-6---|

P.M.[---------------------------------|
e|------------------------------------|
B|------------------------------------|
G|------------------------------------|
D|------------------------------------|
A|10-10-10-10-10-10-10-10--6-6--6-4---|
E|-7--7--7--7--7--7--7--7--4-4--4-2---|

CHORUS
  (Play along to lyrics)
e||----------------------------------------|----------------------------||
B||----------------------------------------|----------------------------||
G||----------------------------------------|----------------------------||
D||--10--10-10--6--6-6--8--8-8--10--10-10--|-10-10--6-6--8-8--10-10-10--||
A||--8----8--8--4--4-4--6--6-6---8---8--8--|--8--8--4-4--6-6---8--8--8--||
E||----------------------------------------|----------------------------||

(Bit after chorus)
e|------------|
B|------------|
G|------------|
D|--6-6--6-4--|
A|--4-4--4-2--|
E|------------|

BRIDGE

e|-------------------------------|---------------|
B|-------------------------------|---------------|
G|--10---13---12---10---8---6----|--5---4---3----|
D|--10---13---12---10---8---6----|--5---4---3----|
A|---8---11---10----8---6---4----|--3---2---1----|
E|-------------------------------|---------------|

e|-------------------------------|
B|-------------------------------|
G|--10---13---12---10---8---6----|
D|--10---13---12---10---8---6----|
A|--8----11---10---8----6---4----|
E|-------------------------------|

e|------------------------------------|
B|------------------------------------|
G|--10--8--6--5--10--8--6--5--2--3----|
D|--10--8--6--5--10--8--6--5--2--3----|
A|---8--6--4--3---8--6--4--3--0--1----|
E|------------------------------------|

PRE CHORUS

No Guitar here.

CHORUS
  (Play along to lyrics)
e||----------------------------------------|----------------------------||
B||----------------------------------------|----------------------------||
G||----------------------------------------|----------------------------||
D||--10--10-10--6--6-6--8--8-8--10--10-10--|-10-10--6-6--8-8--10-10-10--||
A||--8----8--8--4--4-4--6--6-6---8---8--8--|--8--8--4-4--6-6---8--8--8--||
E||----------------------------------------|----------------------------||

(Bit after chorus)
e|------------|
B|------------|
G|------------|
D|--6-6--6-4--|
A|--4-4--4-2--|
E|------------|

Drum  Solo

CHORUS
  (Play along to lyrics)
e||----------------------------------------|----------------------------||
B||----------------------------------------|----------------------------||
G||----------------------------------------|----------------------------||
D||--10--10-10--6--6-6--8--8-8--10--10-10--|-10-10--6-6--8-8--10-10-10--||
A||--8----8--8--4--4-4--6--6-6---8---8--8--|--8--8--4-4--6-6---8--8--8--||
E||----------------------------------------|----------------------------||

(Bit after chorus)
e|------------|
B|------------|
G|------------|
D|--6-6--6-4--|
A|--4-4--4-2--|
E|------------|

OUTRO
                                    X3
e|------------------------------------|
B|------------------------------------|
G|------------------------------------|
D|------3-5-3-1-3-5------3----3-1-3-5-|
A|--5-5-3-5-3-1-3-5--5-5-3-*/-3-1-3-5-|
E|--3-3--------------3-3--------------|

ENJOY!!
            
Submit corrections


        Blood Red Sandman lessons Hard to play? Try these video lessons and learn fast Blood Red Sandman lessons
        
↑ Back to top | Tablatures and chords for acoustic guitar and electric guitar, ukulele, drums are parodies/interpretations of the original songs. You may use it for private study, scholarship, research or language learning purposes only